ISO-10303-21;
HEADER;
/* Generated by software containing ST-Developer
 * from STEP Tools, Inc. (www.steptools.com) 
 */

FILE_DESCRIPTION(
/* description */ (''),
/* implementation_level */ '2;1');

FILE_NAME(
/* name */ 
'X:\\VIRI ZA WEB\\CAD DATOTEKE\\LINEARNE ENOTE UNIMOTION\\DODATNA OPRE
MA ZA LINEARNE ENOTE\\POVEZOVALNI ELEMENTI\\MATICE\\KAMEN T-10-M5\\izv
oz\\CAD_5553.stp',
/* time_stamp */ '2016-04-09T11:57:48+02:00',
/* author */ ('Hypex'),
/* organization */ ('Hypex'),
/* preprocessor_version */ 'ST-DEVELOPER v16.1',
/* originating_system */ 'Autodesk Inventor 2016',
/* authorisation */ '');

FILE_SCHEMA (('AUTOMOTIVE_DESIGN { 1 0 10303 214 3 1 1 }'));
ENDSEC;

DATA;
#10=MECHANICAL_DESIGN_GEOMETRIC_PRESENTATION_REPRESENTATION('',(#13),#403);
#11=SHAPE_REPRESENTATION_RELATIONSHIP('SRR','None',#412,#12);
#12=ADVANCED_BREP_SHAPE_REPRESENTATION('',(#14),#402);
#13=STYLED_ITEM('',(#421),#14);
#14=MANIFOLD_SOLID_BREP('Solid1',#253);
#15=LINE('',#341,#45);
#16=LINE('',#343,#46);
#17=LINE('',#345,#47);
#18=LINE('',#346,#48);
#19=LINE('',#349,#49);
#20=LINE('',#351,#50);
#21=LINE('',#352,#51);
#22=LINE('',#355,#52);
#23=LINE('',#357,#53);
#24=LINE('',#358,#54);
#25=LINE('',#361,#55);
#26=LINE('',#363,#56);
#27=LINE('',#364,#57);
#28=LINE('',#367,#58);
#29=LINE('',#369,#59);
#30=LINE('',#370,#60);
#31=LINE('',#373,#61);
#32=LINE('',#375,#62);
#33=LINE('',#376,#63);
#34=LINE('',#379,#64);
#35=LINE('',#381,#65);
#36=LINE('',#382,#66);
#37=LINE('',#385,#67);
#38=LINE('',#387,#68);
#39=LINE('',#388,#69);
#40=LINE('',#391,#70);
#41=LINE('',#393,#71);
#42=LINE('',#394,#72);
#43=LINE('',#396,#73);
#44=LINE('',#397,#74);
#45=VECTOR('',#280,3.76402016490659);
#46=VECTOR('',#281,20.);
#47=VECTOR('',#282,3.76402016490659);
#48=VECTOR('',#283,20.);
#49=VECTOR('',#286,2.);
#50=VECTOR('',#287,20.);
#51=VECTOR('',#288,2.);
#52=VECTOR('',#291,4.8);
#53=VECTOR('',#292,20.);
#54=VECTOR('',#293,4.8);
#55=VECTOR('',#296,5.);
#56=VECTOR('',#297,20.);
#57=VECTOR('',#298,5.);
#58=VECTOR('',#301,9.8);
#59=VECTOR('',#302,20.);
#60=VECTOR('',#303,9.8);
#61=VECTOR('',#306,5.);
#62=VECTOR('',#307,20.);
#63=VECTOR('',#308,5.);
#64=VECTOR('',#311,4.8);
#65=VECTOR('',#312,20.);
#66=VECTOR('',#313,4.8);
#67=VECTOR('',#316,2.);
#68=VECTOR('',#317,20.);
#69=VECTOR('',#318,2.);
#70=VECTOR('',#321,3.76402016490659);
#71=VECTOR('',#322,20.);
#72=VECTOR('',#323,3.76402016490659);
#73=VECTOR('',#326,14.8534198338428);
#74=VECTOR('',#327,14.8534198338428);
#75=PLANE('',#258);
#76=PLANE('',#259);
#77=PLANE('',#260);
#78=PLANE('',#261);
#79=PLANE('',#262);
#80=PLANE('',#263);
#81=PLANE('',#264);
#82=PLANE('',#265);
#83=PLANE('',#266);
#84=PLANE('',#267);
#85=PLANE('',#268);
#86=PLANE('',#269);
#87=FACE_BOUND('',#104,.T.);
#88=FACE_BOUND('',#110,.T.);
#89=FACE_BOUND('',#116,.T.);
#90=FACE_OUTER_BOUND('',#103,.T.);
#91=FACE_OUTER_BOUND('',#105,.T.);
#92=FACE_OUTER_BOUND('',#106,.T.);
#93=FACE_OUTER_BOUND('',#107,.T.);
#94=FACE_OUTER_BOUND('',#108,.T.);
#95=FACE_OUTER_BOUND('',#109,.T.);
#96=FACE_OUTER_BOUND('',#111,.T.);
#97=FACE_OUTER_BOUND('',#112,.T.);
#98=FACE_OUTER_BOUND('',#113,.T.);
#99=FACE_OUTER_BOUND('',#114,.T.);
#100=FACE_OUTER_BOUND('',#115,.T.);
#101=FACE_OUTER_BOUND('',#117,.T.);
#102=FACE_OUTER_BOUND('',#118,.T.);
#103=EDGE_LOOP('',(#175));
#104=EDGE_LOOP('',(#176));
#105=EDGE_LOOP('',(#177,#178,#179,#180));
#106=EDGE_LOOP('',(#181,#182,#183,#184));
#107=EDGE_LOOP('',(#185,#186,#187,#188));
#108=EDGE_LOOP('',(#189,#190,#191,#192));
#109=EDGE_LOOP('',(#193,#194,#195,#196));
#110=EDGE_LOOP('',(#197));
#111=EDGE_LOOP('',(#198,#199,#200,#201));
#112=EDGE_LOOP('',(#202,#203,#204,#205));
#113=EDGE_LOOP('',(#206,#207,#208,#209));
#114=EDGE_LOOP('',(#210,#211,#212,#213));
#115=EDGE_LOOP('',(#214,#215,#216,#217));
#116=EDGE_LOOP('',(#218));
#117=EDGE_LOOP('',(#219,#220,#221,#222,#223,#224,#225,#226,#227,#228));
#118=EDGE_LOOP('',(#229,#230,#231,#232,#233,#234,#235,#236,#237,#238));
#119=CIRCLE('',#256,2.067);
#120=CIRCLE('',#257,2.067);
#121=VERTEX_POINT('',#334);
#122=VERTEX_POINT('',#336);
#123=VERTEX_POINT('',#339);
#124=VERTEX_POINT('',#340);
#125=VERTEX_POINT('',#342);
#126=VERTEX_POINT('',#344);
#127=VERTEX_POINT('',#348);
#128=VERTEX_POINT('',#350);
#129=VERTEX_POINT('',#354);
#130=VERTEX_POINT('',#356);
#131=VERTEX_POINT('',#360);
#132=VERTEX_POINT('',#362);
#133=VERTEX_POINT('',#366);
#134=VERTEX_POINT('',#368);
#135=VERTEX_POINT('',#372);
#136=VERTEX_POINT('',#374);
#137=VERTEX_POINT('',#378);
#138=VERTEX_POINT('',#380);
#139=VERTEX_POINT('',#384);
#140=VERTEX_POINT('',#386);
#141=VERTEX_POINT('',#390);
#142=VERTEX_POINT('',#392);
#143=EDGE_CURVE('',#121,#121,#119,.T.);
#144=EDGE_CURVE('',#122,#122,#120,.T.);
#145=EDGE_CURVE('',#123,#124,#15,.T.);
#146=EDGE_CURVE('',#125,#124,#16,.T.);
#147=EDGE_CURVE('',#125,#126,#17,.T.);
#148=EDGE_CURVE('',#126,#123,#18,.T.);
#149=EDGE_CURVE('',#124,#127,#19,.T.);
#150=EDGE_CURVE('',#128,#127,#20,.T.);
#151=EDGE_CURVE('',#128,#125,#21,.T.);
#152=EDGE_CURVE('',#127,#129,#22,.T.);
#153=EDGE_CURVE('',#130,#129,#23,.T.);
#154=EDGE_CURVE('',#130,#128,#24,.T.);
#155=EDGE_CURVE('',#129,#131,#25,.T.);
#156=EDGE_CURVE('',#132,#131,#26,.T.);
#157=EDGE_CURVE('',#132,#130,#27,.T.);
#158=EDGE_CURVE('',#131,#133,#28,.T.);
#159=EDGE_CURVE('',#134,#133,#29,.T.);
#160=EDGE_CURVE('',#134,#132,#30,.T.);
#161=EDGE_CURVE('',#133,#135,#31,.T.);
#162=EDGE_CURVE('',#136,#135,#32,.T.);
#163=EDGE_CURVE('',#136,#134,#33,.T.);
#164=EDGE_CURVE('',#135,#137,#34,.T.);
#165=EDGE_CURVE('',#138,#137,#35,.T.);
#166=EDGE_CURVE('',#138,#136,#36,.T.);
#167=EDGE_CURVE('',#137,#139,#37,.T.);
#168=EDGE_CURVE('',#140,#139,#38,.T.);
#169=EDGE_CURVE('',#140,#138,#39,.T.);
#170=EDGE_CURVE('',#139,#141,#40,.T.);
#171=EDGE_CURVE('',#142,#141,#41,.T.);
#172=EDGE_CURVE('',#142,#140,#42,.T.);
#173=EDGE_CURVE('',#141,#123,#43,.T.);
#174=EDGE_CURVE('',#126,#142,#44,.T.);
#175=ORIENTED_EDGE('',*,*,#143,.F.);
#176=ORIENTED_EDGE('',*,*,#144,.F.);
#177=ORIENTED_EDGE('',*,*,#145,.T.);
#178=ORIENTED_EDGE('',*,*,#146,.F.);
#179=ORIENTED_EDGE('',*,*,#147,.T.);
#180=ORIENTED_EDGE('',*,*,#148,.T.);
#181=ORIENTED_EDGE('',*,*,#149,.T.);
#182=ORIENTED_EDGE('',*,*,#150,.F.);
#183=ORIENTED_EDGE('',*,*,#151,.T.);
#184=ORIENTED_EDGE('',*,*,#146,.T.);
#185=ORIENTED_EDGE('',*,*,#152,.T.);
#186=ORIENTED_EDGE('',*,*,#153,.F.);
#187=ORIENTED_EDGE('',*,*,#154,.T.);
#188=ORIENTED_EDGE('',*,*,#150,.T.);
#189=ORIENTED_EDGE('',*,*,#155,.T.);
#190=ORIENTED_EDGE('',*,*,#156,.F.);
#191=ORIENTED_EDGE('',*,*,#157,.T.);
#192=ORIENTED_EDGE('',*,*,#153,.T.);
#193=ORIENTED_EDGE('',*,*,#158,.T.);
#194=ORIENTED_EDGE('',*,*,#159,.F.);
#195=ORIENTED_EDGE('',*,*,#160,.T.);
#196=ORIENTED_EDGE('',*,*,#156,.T.);
#197=ORIENTED_EDGE('',*,*,#144,.T.);
#198=ORIENTED_EDGE('',*,*,#161,.T.);
#199=ORIENTED_EDGE('',*,*,#162,.F.);
#200=ORIENTED_EDGE('',*,*,#163,.T.);
#201=ORIENTED_EDGE('',*,*,#159,.T.);
#202=ORIENTED_EDGE('',*,*,#164,.T.);
#203=ORIENTED_EDGE('',*,*,#165,.F.);
#204=ORIENTED_EDGE('',*,*,#166,.T.);
#205=ORIENTED_EDGE('',*,*,#162,.T.);
#206=ORIENTED_EDGE('',*,*,#167,.T.);
#207=ORIENTED_EDGE('',*,*,#168,.F.);
#208=ORIENTED_EDGE('',*,*,#169,.T.);
#209=ORIENTED_EDGE('',*,*,#165,.T.);
#210=ORIENTED_EDGE('',*,*,#170,.T.);
#211=ORIENTED_EDGE('',*,*,#171,.F.);
#212=ORIENTED_EDGE('',*,*,#172,.T.);
#213=ORIENTED_EDGE('',*,*,#168,.T.);
#214=ORIENTED_EDGE('',*,*,#173,.T.);
#215=ORIENTED_EDGE('',*,*,#148,.F.);
#216=ORIENTED_EDGE('',*,*,#174,.T.);
#217=ORIENTED_EDGE('',*,*,#171,.T.);
#218=ORIENTED_EDGE('',*,*,#143,.T.);
#219=ORIENTED_EDGE('',*,*,#174,.F.);
#220=ORIENTED_EDGE('',*,*,#147,.F.);
#221=ORIENTED_EDGE('',*,*,#151,.F.);
#222=ORIENTED_EDGE('',*,*,#154,.F.);
#223=ORIENTED_EDGE('',*,*,#157,.F.);
#224=ORIENTED_EDGE('',*,*,#160,.F.);
#225=ORIENTED_EDGE('',*,*,#163,.F.);
#226=ORIENTED_EDGE('',*,*,#166,.F.);
#227=ORIENTED_EDGE('',*,*,#169,.F.);
#228=ORIENTED_EDGE('',*,*,#172,.F.);
#229=ORIENTED_EDGE('',*,*,#173,.F.);
#230=ORIENTED_EDGE('',*,*,#170,.F.);
#231=ORIENTED_EDGE('',*,*,#167,.F.);
#232=ORIENTED_EDGE('',*,*,#164,.F.);
#233=ORIENTED_EDGE('',*,*,#161,.F.);
#234=ORIENTED_EDGE('',*,*,#158,.F.);
#235=ORIENTED_EDGE('',*,*,#155,.F.);
#236=ORIENTED_EDGE('',*,*,#152,.F.);
#237=ORIENTED_EDGE('',*,*,#149,.F.);
#238=ORIENTED_EDGE('',*,*,#145,.F.);
#239=CYLINDRICAL_SURFACE('',#255,2.067);
#240=ADVANCED_FACE('',(#90,#87),#239,.F.);
#241=ADVANCED_FACE('',(#91),#75,.T.);
#242=ADVANCED_FACE('',(#92),#76,.T.);
#243=ADVANCED_FACE('',(#93),#77,.T.);
#244=ADVANCED_FACE('',(#94),#78,.T.);
#245=ADVANCED_FACE('',(#95,#88),#79,.T.);
#246=ADVANCED_FACE('',(#96),#80,.T.);
#247=ADVANCED_FACE('',(#97),#81,.T.);
#248=ADVANCED_FACE('',(#98),#82,.T.);
#249=ADVANCED_FACE('',(#99),#83,.T.);
#250=ADVANCED_FACE('',(#100,#89),#84,.T.);
#251=ADVANCED_FACE('',(#101),#85,.F.);
#252=ADVANCED_FACE('',(#102),#86,.T.);
#253=CLOSED_SHELL('',(#240,#241,#242,#243,#244,#245,#246,#247,#248,#249,
#250,#251,#252));
#254=AXIS2_PLACEMENT_3D('placement',#332,#270,#271);
#255=AXIS2_PLACEMENT_3D('',#333,#272,#273);
#256=AXIS2_PLACEMENT_3D('',#335,#274,#275);
#257=AXIS2_PLACEMENT_3D('',#337,#276,#277);
#258=AXIS2_PLACEMENT_3D('',#338,#278,#279);
#259=AXIS2_PLACEMENT_3D('',#347,#284,#285);
#260=AXIS2_PLACEMENT_3D('',#353,#289,#290);
#261=AXIS2_PLACEMENT_3D('',#359,#294,#295);
#262=AXIS2_PLACEMENT_3D('',#365,#299,#300);
#263=AXIS2_PLACEMENT_3D('',#371,#304,#305);
#264=AXIS2_PLACEMENT_3D('',#377,#309,#310);
#265=AXIS2_PLACEMENT_3D('',#383,#314,#315);
#266=AXIS2_PLACEMENT_3D('',#389,#319,#320);
#267=AXIS2_PLACEMENT_3D('',#395,#324,#325);
#268=AXIS2_PLACEMENT_3D('',#398,#328,#329);
#269=AXIS2_PLACEMENT_3D('',#399,#330,#331);
#270=DIRECTION('axis',(0.,0.,1.));
#271=DIRECTION('refdir',(1.,0.,0.));
#272=DIRECTION('center_axis',(0.,1.,0.));
#273=DIRECTION('ref_axis',(1.,0.,0.));
#274=DIRECTION('center_axis',(-3.64958559335753E-16,1.,0.));
#275=DIRECTION('ref_axis',(1.,0.,0.));
#276=DIRECTION('center_axis',(0.,-1.,0.));
#277=DIRECTION('ref_axis',(1.,0.,0.));
#278=DIRECTION('center_axis',(-0.797020172200499,-0.603952684492326,0.));
#279=DIRECTION('ref_axis',(0.,0.,1.));
#280=DIRECTION('',(-0.603952684492325,0.797020172200499,0.));
#281=DIRECTION('',(0.,0.,1.));
#282=DIRECTION('',(0.603952684492325,-0.797020172200499,0.));
#283=DIRECTION('',(0.,0.,1.));
#284=DIRECTION('center_axis',(-1.,0.,0.));
#285=DIRECTION('ref_axis',(0.,0.,1.));
#286=DIRECTION('',(0.,1.,0.));
#287=DIRECTION('',(0.,0.,1.));
#288=DIRECTION('',(0.,-1.,0.));
#289=DIRECTION('center_axis',(-1.15648231731787E-16,1.,0.));
#290=DIRECTION('ref_axis',(0.,0.,1.));
#291=DIRECTION('',(1.,1.15648231731787E-16,0.));
#292=DIRECTION('',(0.,0.,1.));
#293=DIRECTION('',(-1.,-1.15648231731787E-16,0.));
#294=DIRECTION('center_axis',(-1.,-2.22044604925031E-16,0.));
#295=DIRECTION('ref_axis',(0.,0.,1.));
#296=DIRECTION('',(-2.22044604925031E-16,1.,0.));
#297=DIRECTION('',(0.,0.,1.));
#298=DIRECTION('',(2.22044604925031E-16,-1.,0.));
#299=DIRECTION('center_axis',(0.,1.,0.));
#300=DIRECTION('ref_axis',(0.,0.,1.));
#301=DIRECTION('',(1.,0.,0.));
#302=DIRECTION('',(0.,0.,1.));
#303=DIRECTION('',(-1.,0.,0.));
#304=DIRECTION('center_axis',(1.,4.44089209850063E-16,0.));
#305=DIRECTION('ref_axis',(0.,0.,-1.));
#306=DIRECTION('',(4.44089209850063E-16,-1.,0.));
#307=DIRECTION('',(0.,0.,1.));
#308=DIRECTION('',(-4.44089209850063E-16,1.,0.));
#309=DIRECTION('center_axis',(-4.62592926927148E-16,1.,0.));
#310=DIRECTION('ref_axis',(0.,0.,1.));
#311=DIRECTION('',(1.,4.62592926927148E-16,0.));
#312=DIRECTION('',(0.,0.,1.));
#313=DIRECTION('',(-1.,-4.62592926927148E-16,0.));
#314=DIRECTION('center_axis',(1.,0.,0.));
#315=DIRECTION('ref_axis',(0.,0.,-1.));
#316=DIRECTION('',(0.,-1.,0.));
#317=DIRECTION('',(0.,0.,1.));
#318=DIRECTION('',(0.,1.,0.));
#319=DIRECTION('center_axis',(0.7970201722005,-0.603952684492325,0.));
#320=DIRECTION('ref_axis',(0.,0.,-1.));
#321=DIRECTION('',(-0.603952684492325,-0.7970201722005,0.));
#322=DIRECTION('',(0.,0.,1.));
#323=DIRECTION('',(0.603952684492325,0.7970201722005,0.));
#324=DIRECTION('center_axis',(3.64958559335753E-16,-1.,0.));
#325=DIRECTION('ref_axis',(0.,0.,-1.));
#326=DIRECTION('',(-1.,-2.24235840037773E-16,0.));
#327=DIRECTION('',(1.,3.64958559335753E-16,0.));
#328=DIRECTION('center_axis',(0.,0.,1.));
#329=DIRECTION('ref_axis',(1.,0.,0.));
#330=DIRECTION('center_axis',(0.,0.,1.));
#331=DIRECTION('ref_axis',(1.,0.,0.));
#332=CARTESIAN_POINT('',(0.,0.,0.));
#333=CARTESIAN_POINT('Origin',(-2.43949795780254,-19.6033781856058,10.));
#334=CARTESIAN_POINT('',(-4.50649795780254,4.44089209850063E-15,10.));
#335=CARTESIAN_POINT('Origin',(-2.43949795780254,4.44089209850063E-15,10.));
#336=CARTESIAN_POINT('',(-0.372497957802536,10.,10.));
#337=CARTESIAN_POINT('Origin',(-2.43949795780254,10.,10.));
#338=CARTESIAN_POINT('Origin',(-9.86620787472395,0.,0.));
#339=CARTESIAN_POINT('',(-9.86620787472395,0.,20.));
#340=CARTESIAN_POINT('',(-12.1394979578025,3.,20.));
#341=CARTESIAN_POINT('',(-12.1394979578025,3.,20.));
#342=CARTESIAN_POINT('',(-12.1394979578025,3.,0.));
#343=CARTESIAN_POINT('',(-12.1394979578025,3.,0.));
#344=CARTESIAN_POINT('',(-9.86620787472395,0.,0.));
#345=CARTESIAN_POINT('',(-12.1394979578025,3.,0.));
#346=CARTESIAN_POINT('',(-9.86620787472395,0.,0.));
#347=CARTESIAN_POINT('Origin',(-12.1394979578025,3.,0.));
#348=CARTESIAN_POINT('',(-12.1394979578025,5.,20.));
#349=CARTESIAN_POINT('',(-12.1394979578025,5.,20.));
#350=CARTESIAN_POINT('',(-12.1394979578025,5.,0.));
#351=CARTESIAN_POINT('',(-12.1394979578025,5.,0.));
#352=CARTESIAN_POINT('',(-12.1394979578025,5.,0.));
#353=CARTESIAN_POINT('Origin',(-12.1394979578025,5.,0.));
#354=CARTESIAN_POINT('',(-7.33949795780253,5.,20.));
#355=CARTESIAN_POINT('',(-7.33949795780253,5.,20.));
#356=CARTESIAN_POINT('',(-7.33949795780253,5.,0.));
#357=CARTESIAN_POINT('',(-7.33949795780253,5.,0.));
#358=CARTESIAN_POINT('',(-7.33949795780253,5.,0.));
#359=CARTESIAN_POINT('Origin',(-7.33949795780253,5.,0.));
#360=CARTESIAN_POINT('',(-7.33949795780254,10.,20.));
#361=CARTESIAN_POINT('',(-7.33949795780254,10.,20.));
#362=CARTESIAN_POINT('',(-7.33949795780254,10.,0.));
#363=CARTESIAN_POINT('',(-7.33949795780254,10.,0.));
#364=CARTESIAN_POINT('',(-7.33949795780254,10.,0.));
#365=CARTESIAN_POINT('Origin',(-2.43949795780254,10.,0.));
#366=CARTESIAN_POINT('',(2.46050204219746,10.,20.));
#367=CARTESIAN_POINT('',(2.46050204219746,10.,20.));
#368=CARTESIAN_POINT('',(2.46050204219746,10.,0.));
#369=CARTESIAN_POINT('',(2.46050204219746,10.,0.));
#370=CARTESIAN_POINT('',(2.46050204219746,10.,0.));
#371=CARTESIAN_POINT('Origin',(2.46050204219746,10.,0.));
#372=CARTESIAN_POINT('',(2.46050204219746,5.,20.));
#373=CARTESIAN_POINT('',(2.46050204219746,5.,20.));
#374=CARTESIAN_POINT('',(2.46050204219746,5.,0.));
#375=CARTESIAN_POINT('',(2.46050204219746,5.,0.));
#376=CARTESIAN_POINT('',(2.46050204219746,5.,0.));
#377=CARTESIAN_POINT('Origin',(2.46050204219746,5.,0.));
#378=CARTESIAN_POINT('',(7.26050204219747,5.,20.));
#379=CARTESIAN_POINT('',(7.26050204219747,5.,20.));
#380=CARTESIAN_POINT('',(7.26050204219747,5.,0.));
#381=CARTESIAN_POINT('',(7.26050204219747,5.,0.));
#382=CARTESIAN_POINT('',(7.26050204219747,5.,0.));
#383=CARTESIAN_POINT('Origin',(7.26050204219747,5.,0.));
#384=CARTESIAN_POINT('',(7.26050204219747,3.,20.));
#385=CARTESIAN_POINT('',(7.26050204219747,3.,20.));
#386=CARTESIAN_POINT('',(7.26050204219747,3.,0.));
#387=CARTESIAN_POINT('',(7.26050204219747,3.,0.));
#388=CARTESIAN_POINT('',(7.26050204219747,3.,0.));
#389=CARTESIAN_POINT('Origin',(7.26050204219747,3.,0.));
#390=CARTESIAN_POINT('',(4.98721195911889,4.37577588882193E-15,20.));
#391=CARTESIAN_POINT('',(4.98721195911889,4.37577588882193E-15,20.));
#392=CARTESIAN_POINT('',(4.98721195911889,4.37577588882193E-15,0.));
#393=CARTESIAN_POINT('',(4.98721195911889,4.37577588882193E-15,0.));
#394=CARTESIAN_POINT('',(4.98721195911889,4.37577588882193E-15,0.));
#395=CARTESIAN_POINT('Origin',(4.98721195911889,4.37577588882193E-15,0.));
#396=CARTESIAN_POINT('',(-9.86620787472395,0.,20.));
#397=CARTESIAN_POINT('',(-2.43949795780253,1.66533453693774E-15,0.));
#398=CARTESIAN_POINT('Origin',(1.53919684465653,4.59600619653614,0.));
#399=CARTESIAN_POINT('Origin',(1.53919684465653,4.59600619653614,20.));
#400=UNCERTAINTY_MEASURE_WITH_UNIT(LENGTH_MEASURE(0.01),#404,
'DISTANCE_ACCURACY_VALUE',
'Maximum model space distance between geometric entities at asserted c
onnectivities');
#401=UNCERTAINTY_MEASURE_WITH_UNIT(LENGTH_MEASURE(1.E-6),#404,
'DISTANCE_ACCURACY_VALUE',
'Maximum model space distance between geometric entities at asserted c
onnectivities');
#402=(
GEOMETRIC_REPRESENTATION_CONTEXT(3)
GLOBAL_UNCERTAINTY_ASSIGNED_CONTEXT((#400))
GLOBAL_UNIT_ASSIGNED_CONTEXT((#404,#407,#405))
REPRESENTATION_CONTEXT('','3D')
);
#403=(
GEOMETRIC_REPRESENTATION_CONTEXT(3)
GLOBAL_UNCERTAINTY_ASSIGNED_CONTEXT((#401))
GLOBAL_UNIT_ASSIGNED_CONTEXT((#404,#407,#405))
REPRESENTATION_CONTEXT('','3D')
);
#404=(
LENGTH_UNIT()
NAMED_UNIT(*)
SI_UNIT(.MILLI.,.METRE.)
);
#405=(
NAMED_UNIT(*)
SI_UNIT($,.STERADIAN.)
SOLID_ANGLE_UNIT()
);
#406=DIMENSIONAL_EXPONENTS(0.,0.,0.,0.,0.,0.,0.);
#407=(
CONVERSION_BASED_UNIT('degree',#409)
NAMED_UNIT(#406)
PLANE_ANGLE_UNIT()
);
#408=(
NAMED_UNIT(*)
PLANE_ANGLE_UNIT()
SI_UNIT($,.RADIAN.)
);
#409=PLANE_ANGLE_MEASURE_WITH_UNIT(PLANE_ANGLE_MEASURE(0.01745329252),#408);
#410=SHAPE_DEFINITION_REPRESENTATION(#411,#412);
#411=PRODUCT_DEFINITION_SHAPE('',$,#414);
#412=SHAPE_REPRESENTATION('',(#254),#402);
#413=PRODUCT_DEFINITION_CONTEXT('part definition',#418,'design');
#414=PRODUCT_DEFINITION('CAD_5553','CAD_5553',#415,#413);
#415=PRODUCT_DEFINITION_FORMATION('',$,#420);
#416=PRODUCT_RELATED_PRODUCT_CATEGORY('CAD_5553','CAD_5553',(#420));
#417=APPLICATION_PROTOCOL_DEFINITION('international standard',
'automotive_design',2009,#418);
#418=APPLICATION_CONTEXT(
'Core Data for Automotive Mechanical Design Process');
#419=PRODUCT_CONTEXT('part definition',#418,'mechanical');
#420=PRODUCT('CAD_5553','CAD_5553',$,(#419));
#421=PRESENTATION_STYLE_ASSIGNMENT((#422));
#422=SURFACE_STYLE_USAGE(.BOTH.,#423);
#423=SURFACE_SIDE_STYLE('',(#424));
#424=SURFACE_STYLE_FILL_AREA(#425);
#425=FILL_AREA_STYLE('',(#426));
#426=FILL_AREA_STYLE_COLOUR('',#427);
#427=COLOUR_RGB('',0.67843137254902,0.768627450980392,0.811764705882353);
ENDSEC;
END-ISO-10303-21;
