ISO-10303-21;
HEADER;
/****************************************************************
 * Generated by software with PDE/Lib inside                    *
 * PDElib Version v51a, created 12/06/2005 Tue                  *
 * International Technegroup Inc. (www.iti-oh.com)              *
 ****************************************************************/
FILE_DESCRIPTION((''),'2;1');
FILE_NAME('SZ0310S.stp','2009-07-27T13:39:37',(''),(''),'Mechanical Desktop 2007','Mechanical Desktop 2007',', , ');
FILE_SCHEMA(('CONFIG_CONTROL_DESIGN'));
ENDSEC;
DATA;
#8=(NAMED_UNIT(*)PLANE_ANGLE_UNIT()SI_UNIT($,.RADIAN.));
#9=DIMENSIONAL_EXPONENTS(0.0,0.0,0.0,0.0,0.0,0.0,0.0);
#10=PLANE_ANGLE_MEASURE_WITH_UNIT(PLANE_ANGLE_MEASURE(0.017453292500000),#8);
#14=(CONVERSION_BASED_UNIT('DEGREE',#10)NAMED_UNIT(#9)PLANE_ANGLE_UNIT());
#18=(NAMED_UNIT(*)SI_UNIT($,.STERADIAN.)SOLID_ANGLE_UNIT());
#22=(LENGTH_UNIT()NAMED_UNIT(*)SI_UNIT(.MILLI.,.METRE.));
#23=UNCERTAINTY_MEASURE_WITH_UNIT(LENGTH_MEASURE(0.000001000000000),#22,'DISTANCE_ACCURACY_VALUE','');
#28=(GEOMETRIC_REPRESENTATION_CONTEXT(3)GLOBAL_UNCERTAINTY_ASSIGNED_CONTEXT((#23))GLOBAL_UNIT_ASSIGNED_CONTEXT((#14,#18,#22))REPRESENTATION_CONTEXT('None','None'));
#29=APPLICATION_CONTEXT('CONFIGURATION CONTROLLED 3D DESIGNS OF MECHANICAL PARTS AND ASSEMBLIES');
#30=APPLICATION_PROTOCOL_DEFINITION('INTERNATIONAL STANDARD','config_control_design',1995,#29);
#31=MECHANICAL_CONTEXT('3D Mechanical Parts',#29,'mechanical');
#32=PRODUCT('SZ0310S','SZ0310S',' ',(#31));
#33=PRODUCT_RELATED_PRODUCT_CATEGORY('detail',$,(#32));
#34=PRODUCT_CATEGORY('part',$);
#35=PRODUCT_CATEGORY_RELATIONSHIP('None','None',#34,#33);
#36=PERSON('1','Design','Joe',$,$,$);
#37=ORGANIZATION($,'None','None');
#38=PERSON_AND_ORGANIZATION(#36,#37);
#39=PERSON_AND_ORGANIZATION_ROLE('design_owner');
#40=CC_DESIGN_PERSON_AND_ORGANIZATION_ASSIGNMENT(#38,#39,(#32));
#41=PRODUCT_DEFINITION_FORMATION_WITH_SPECIFIED_SOURCE('None','None',#32,.NOT_KNOWN.);
#42=PERSON('2','Creator','Joe',$,$,$);
#43=ORGANIZATION($,'None','None');
#44=PERSON_AND_ORGANIZATION(#42,#43);
#45=PERSON_AND_ORGANIZATION_ROLE('creator');
#46=CC_DESIGN_PERSON_AND_ORGANIZATION_ASSIGNMENT(#44,#45,(#41));
#47=PERSON('3','Supplier','Joe',$,$,$);
#48=ORGANIZATION($,'None','None');
#49=PERSON_AND_ORGANIZATION(#47,#48);
#50=PERSON_AND_ORGANIZATION_ROLE('design_supplier');
#51=CC_DESIGN_PERSON_AND_ORGANIZATION_ASSIGNMENT(#49,#50,(#41));
#52=APPROVAL_STATUS('approved');
#53=APPROVAL(#52,'None');
#54=PERSON('4','Approver','Joe',$,$,$);
#55=ORGANIZATION($,'None','None');
#56=PERSON_AND_ORGANIZATION(#54,#55);
#57=APPROVAL_ROLE('approver');
#58=APPROVAL_PERSON_ORGANIZATION(#56,#53,#57);
#59=COORDINATED_UNIVERSAL_TIME_OFFSET(8,$,.BEHIND.);
#60=CALENDAR_DATE(1996,29,5);
#61=LOCAL_TIME(12,0,0.0,#59);
#62=DATE_AND_TIME(#60,#61);
#63=APPROVAL_DATE_TIME(#62,#53);
#64=CC_DESIGN_APPROVAL(#53,(#41));
#65=SECURITY_CLASSIFICATION_LEVEL('unclassified');
#66=SECURITY_CLASSIFICATION('security','None',#65);
#67=CC_DESIGN_SECURITY_CLASSIFICATION(#66,(#41));
#68=APPROVAL_STATUS('approved');
#69=APPROVAL(#68,'None');
#70=PERSON('5','Approver','Joe',$,$,$);
#71=ORGANIZATION($,'None','None');
#72=PERSON_AND_ORGANIZATION(#70,#71);
#73=APPROVAL_ROLE('approver');
#74=APPROVAL_PERSON_ORGANIZATION(#72,#69,#73);
#75=COORDINATED_UNIVERSAL_TIME_OFFSET(8,$,.BEHIND.);
#76=CALENDAR_DATE(1996,29,5);
#77=LOCAL_TIME(12,0,0.0,#75);
#78=DATE_AND_TIME(#76,#77);
#79=APPROVAL_DATE_TIME(#78,#69);
#80=CC_DESIGN_APPROVAL(#69,(#66));
#81=PERSON('6','Classifier','Joe',$,$,$);
#82=ORGANIZATION($,'None','None');
#83=PERSON_AND_ORGANIZATION(#81,#82);
#84=PERSON_AND_ORGANIZATION_ROLE('classification_officer');
#85=CC_DESIGN_PERSON_AND_ORGANIZATION_ASSIGNMENT(#83,#84,(#66));
#86=COORDINATED_UNIVERSAL_TIME_OFFSET(8,$,.BEHIND.);
#87=CALENDAR_DATE(1996,29,5);
#88=LOCAL_TIME(12,0,0.0,#86);
#89=DATE_AND_TIME(#87,#88);
#90=DATE_TIME_ROLE('classification_date');
#91=CC_DESIGN_DATE_AND_TIME_ASSIGNMENT(#89,#90,(#66));
#92=DESIGN_CONTEXT('Design Context',#29,'design');
#93=PRODUCT_DEFINITION('None','None',#41,#92);
#94=PERSON('7','Creator','Joe',$,$,$);
#95=ORGANIZATION($,'None','None');
#96=PERSON_AND_ORGANIZATION(#94,#95);
#97=PERSON_AND_ORGANIZATION_ROLE('creator');
#98=CC_DESIGN_PERSON_AND_ORGANIZATION_ASSIGNMENT(#96,#97,(#93));
#99=COORDINATED_UNIVERSAL_TIME_OFFSET(8,$,.BEHIND.);
#100=CALENDAR_DATE(1996,29,5);
#101=LOCAL_TIME(12,0,0.0,#99);
#102=DATE_AND_TIME(#100,#101);
#103=DATE_TIME_ROLE('creation_date');
#104=CC_DESIGN_DATE_AND_TIME_ASSIGNMENT(#102,#103,(#93));
#105=APPROVAL_STATUS('approved');
#106=APPROVAL(#105,'None');
#107=PERSON('8','Approver','Joe',$,$,$);
#108=ORGANIZATION($,'None','None');
#109=PERSON_AND_ORGANIZATION(#107,#108);
#110=APPROVAL_ROLE('approver');
#111=APPROVAL_PERSON_ORGANIZATION(#109,#106,#110);
#112=COORDINATED_UNIVERSAL_TIME_OFFSET(8,$,.BEHIND.);
#113=CALENDAR_DATE(1996,29,5);
#114=LOCAL_TIME(12,0,0.0,#112);
#115=DATE_AND_TIME(#113,#114);
#116=APPROVAL_DATE_TIME(#115,#106);
#117=CC_DESIGN_APPROVAL(#106,(#93));
#118=CARTESIAN_POINT('NONE',(0.0,0.0,0.0));
#119=DIRECTION('NONE',(0.0,0.0,1.0));
#120=DIRECTION('NONE',(1.0,0.0,0.0));
#121=AXIS2_PLACEMENT_3D('NONE',#118,#119,#120);
#122=SHAPE_REPRESENTATION('SR1',(#121),#28);
#123=PRODUCT_DEFINITION_SHAPE('PDS1','Test Part',#93);
#124=SHAPE_DEFINITION_REPRESENTATION(#123,#122);
#125=CARTESIAN_POINT('',(0.0,0.0,-131.774468787578260));
#126=DIRECTION('',(0.0,0.0,-1.0));
#127=DIRECTION('',(-1.0,0.0,0.0));
#128=AXIS2_PLACEMENT_3D('',#125,#126,#127);
#129=CYLINDRICAL_SURFACE('',#128,10.0);
#130=CARTESIAN_POINT('',(-10.0,0.0,7.500000000000000));
#131=VERTEX_POINT('',#130);
#132=CARTESIAN_POINT('',(-10.0,0.0,0.0));
#133=VERTEX_POINT('',#132);
#134=CARTESIAN_POINT('',(-10.0,0.0,7.500000000000000));
#135=DIRECTION('',(0.0,0.0,-1.0));
#136=VECTOR('',#135,7.500000000000000);
#137=LINE('',#134,#136);
#138=EDGE_CURVE('',#131,#133,#137,.T.);
#139=ORIENTED_EDGE('',*,*,#138,.F.);
#140=CARTESIAN_POINT('',(10.0,5.684342E-014,7.500000000000000));
#141=VERTEX_POINT('',#140);
#142=CARTESIAN_POINT('',(0.0,0.0,7.500000000000000));
#143=DIRECTION('',(0.0,0.0,-1.0));
#144=DIRECTION('',(-1.0,0.0,0.0));
#145=AXIS2_PLACEMENT_3D('',#142,#143,#144);
#146=CIRCLE('',#145,10.0);
#147=EDGE_CURVE('',#141,#131,#146,.T.);
#148=ORIENTED_EDGE('',*,*,#147,.F.);
#149=CARTESIAN_POINT('',(10.0,-5.684342E-014,0.0));
#150=VERTEX_POINT('',#149);
#151=CARTESIAN_POINT('',(10.0,5.684342E-014,7.500000000000000));
#152=DIRECTION('',(0.0,0.0,-1.0));
#153=VECTOR('',#152,7.500000000000000);
#154=LINE('',#151,#153);
#155=EDGE_CURVE('',#141,#150,#154,.T.);
#156=ORIENTED_EDGE('',*,*,#155,.T.);
#157=CARTESIAN_POINT('',(0.0,0.0,0.0));
#158=DIRECTION('',(0.0,0.0,1.0));
#159=DIRECTION('',(-1.0,0.0,0.0));
#160=AXIS2_PLACEMENT_3D('',#157,#158,#159);
#161=CIRCLE('',#160,10.0);
#162=EDGE_CURVE('',#133,#150,#161,.T.);
#163=ORIENTED_EDGE('',*,*,#162,.F.);
#164=EDGE_LOOP('',(#139,#148,#156,#163));
#165=FACE_OUTER_BOUND('',#164,.T.);
#166=ADVANCED_FACE('',(#165),#129,.F.);
#167=CARTESIAN_POINT('',(0.0,0.0,8.750000000000000));
#168=DIRECTION('',(0.0,0.0,-1.0));
#169=DIRECTION('',(-1.0,0.0,0.0));
#170=AXIS2_PLACEMENT_3D('',#167,#168,#169);
#171=CYLINDRICAL_SURFACE('',#170,16.500000000000000);
#172=CARTESIAN_POINT('',(-16.500000000000000,0.0,10.0));
#173=VERTEX_POINT('',#172);
#174=CARTESIAN_POINT('',(-16.500000000000000,0.0,7.500000000000000));
#175=VERTEX_POINT('',#174);
#176=CARTESIAN_POINT('',(-16.500000000000000,0.0,10.0));
#177=DIRECTION('',(0.0,0.0,-1.0));
#178=VECTOR('',#177,2.500000000000000);
#179=LINE('',#176,#178);
#180=EDGE_CURVE('',#173,#175,#179,.T.);
#181=ORIENTED_EDGE('',*,*,#180,.F.);
#182=CARTESIAN_POINT('',(16.500000000000000,-2.020600E-015,10.0));
#183=VERTEX_POINT('',#182);
#184=CARTESIAN_POINT('',(0.0,0.0,10.0));
#185=DIRECTION('',(0.0,0.0,-1.0));
#186=DIRECTION('',(-1.0,0.0,0.0));
#187=AXIS2_PLACEMENT_3D('',#184,#185,#186);
#188=CIRCLE('',#187,16.500000000000000);
#189=EDGE_CURVE('',#183,#173,#188,.T.);
#190=ORIENTED_EDGE('',*,*,#189,.F.);
#191=CARTESIAN_POINT('',(16.500000000000000,-2.020600E-015,7.500000000000000));
#192=VERTEX_POINT('',#191);
#193=CARTESIAN_POINT('',(16.500000000000000,-2.020600E-015,10.0));
#194=DIRECTION('',(0.0,0.0,-1.0));
#195=VECTOR('',#194,2.500000000000000);
#196=LINE('',#193,#195);
#197=EDGE_CURVE('',#183,#192,#196,.T.);
#198=ORIENTED_EDGE('',*,*,#197,.T.);
#199=CARTESIAN_POINT('',(0.0,0.0,7.500000000000000));
#200=DIRECTION('',(0.0,0.0,-1.0));
#201=DIRECTION('',(-1.0,0.0,0.0));
#202=AXIS2_PLACEMENT_3D('',#199,#200,#201);
#203=CIRCLE('',#202,16.500000000000000);
#204=EDGE_CURVE('',#192,#175,#203,.T.);
#205=ORIENTED_EDGE('',*,*,#204,.T.);
#206=EDGE_LOOP('',(#181,#190,#198,#205));
#207=FACE_OUTER_BOUND('',#206,.T.);
#208=ADVANCED_FACE('',(#207),#171,.F.);
#209=CARTESIAN_POINT('',(0.0,0.0,7.500000000000000));
#210=DIRECTION('',(0.0,0.0,-1.0));
#211=DIRECTION('',(-1.0,0.0,0.0));
#212=AXIS2_PLACEMENT_3D('',#209,#210,#211);
#213=PLANE('',#212);
#214=CARTESIAN_POINT('',(0.0,0.0,7.500000000000000));
#215=DIRECTION('',(0.0,0.0,-1.0));
#216=DIRECTION('',(-1.0,0.0,0.0));
#217=AXIS2_PLACEMENT_3D('',#214,#215,#216);
#218=CIRCLE('',#217,16.500000000000000);
#219=EDGE_CURVE('',#175,#192,#218,.T.);
#220=ORIENTED_EDGE('',*,*,#219,.F.);
#221=ORIENTED_EDGE('',*,*,#204,.F.);
#222=EDGE_LOOP('',(#220,#221));
#223=FACE_OUTER_BOUND('',#222,.T.);
#224=ORIENTED_EDGE('',*,*,#147,.T.);
#225=CARTESIAN_POINT('',(0.0,0.0,7.500000000000000));
#226=DIRECTION('',(0.0,0.0,-1.0));
#227=DIRECTION('',(-1.0,0.0,0.0));
#228=AXIS2_PLACEMENT_3D('',#225,#226,#227);
#229=CIRCLE('',#228,10.0);
#230=EDGE_CURVE('',#131,#141,#229,.T.);
#231=ORIENTED_EDGE('',*,*,#230,.T.);
#232=EDGE_LOOP('',(#224,#231));
#233=FACE_BOUND('',#232,.T.);
#234=ADVANCED_FACE('',(#223,#233),#213,.F.);
#235=CARTESIAN_POINT('',(0.0,0.0,8.750000000000000));
#236=DIRECTION('',(0.0,0.0,-1.0));
#237=DIRECTION('',(-1.0,0.0,0.0));
#238=AXIS2_PLACEMENT_3D('',#235,#236,#237);
#239=CYLINDRICAL_SURFACE('',#238,16.500000000000000);
#240=ORIENTED_EDGE('',*,*,#180,.T.);
#241=ORIENTED_EDGE('',*,*,#219,.T.);
#242=ORIENTED_EDGE('',*,*,#197,.F.);
#243=CARTESIAN_POINT('',(0.0,0.0,10.0));
#244=DIRECTION('',(0.0,0.0,-1.0));
#245=DIRECTION('',(-1.0,0.0,0.0));
#246=AXIS2_PLACEMENT_3D('',#243,#244,#245);
#247=CIRCLE('',#246,16.500000000000000);
#248=EDGE_CURVE('',#173,#183,#247,.T.);
#249=ORIENTED_EDGE('',*,*,#248,.F.);
#250=EDGE_LOOP('',(#240,#241,#242,#249));
#251=FACE_OUTER_BOUND('',#250,.T.);
#252=ADVANCED_FACE('',(#251),#239,.F.);
#253=CARTESIAN_POINT('',(0.0,0.0,-131.774468787578260));
#254=DIRECTION('',(0.0,0.0,-1.0));
#255=DIRECTION('',(-1.0,0.0,0.0));
#256=AXIS2_PLACEMENT_3D('',#253,#254,#255);
#257=CYLINDRICAL_SURFACE('',#256,10.0);
#258=ORIENTED_EDGE('',*,*,#138,.T.);
#259=CARTESIAN_POINT('',(0.0,0.0,0.0));
#260=DIRECTION('',(0.0,0.0,1.0));
#261=DIRECTION('',(-1.0,0.0,0.0));
#262=AXIS2_PLACEMENT_3D('',#259,#260,#261);
#263=CIRCLE('',#262,10.0);
#264=EDGE_CURVE('',#150,#133,#263,.T.);
#265=ORIENTED_EDGE('',*,*,#264,.F.);
#266=ORIENTED_EDGE('',*,*,#155,.F.);
#267=ORIENTED_EDGE('',*,*,#230,.F.);
#268=EDGE_LOOP('',(#258,#265,#266,#267));
#269=FACE_OUTER_BOUND('',#268,.T.);
#270=ADVANCED_FACE('',(#269),#257,.F.);
#271=CARTESIAN_POINT('',(-50.0,50.0,0.0));
#272=DIRECTION('',(0.0,1.0,0.0));
#273=DIRECTION('',(0.0,0.0,1.0));
#274=AXIS2_PLACEMENT_3D('',#271,#272,#273);
#275=PLANE('',#274);
#276=CARTESIAN_POINT('',(-50.0,50.0,10.0));
#277=VERTEX_POINT('',#276);
#278=CARTESIAN_POINT('',(50.0,50.0,10.0));
#279=VERTEX_POINT('',#278);
#280=CARTESIAN_POINT('',(-50.0,50.0,10.0));
#281=DIRECTION('',(1.0,0.0,0.0));
#282=VECTOR('',#281,100.0);
#283=LINE('',#280,#282);
#284=EDGE_CURVE('',#277,#279,#283,.T.);
#285=ORIENTED_EDGE('',*,*,#284,.T.);
#286=CARTESIAN_POINT('',(50.0,50.0,0.0));
#287=VERTEX_POINT('',#286);
#288=CARTESIAN_POINT('',(50.0,50.0,0.0));
#289=DIRECTION('',(0.0,0.0,1.0));
#290=VECTOR('',#289,10.0);
#291=LINE('',#288,#290);
#292=EDGE_CURVE('',#287,#279,#291,.T.);
#293=ORIENTED_EDGE('',*,*,#292,.F.);
#294=CARTESIAN_POINT('',(-50.0,50.0,0.0));
#295=VERTEX_POINT('',#294);
#296=CARTESIAN_POINT('',(-50.0,50.0,0.0));
#297=DIRECTION('',(1.0,0.0,0.0));
#298=VECTOR('',#297,100.0);
#299=LINE('',#296,#298);
#300=EDGE_CURVE('',#295,#287,#299,.T.);
#301=ORIENTED_EDGE('',*,*,#300,.F.);
#302=CARTESIAN_POINT('',(-50.0,50.0,0.0));
#303=DIRECTION('',(0.0,0.0,1.0));
#304=VECTOR('',#303,10.0);
#305=LINE('',#302,#304);
#306=EDGE_CURVE('',#295,#277,#305,.T.);
#307=ORIENTED_EDGE('',*,*,#306,.T.);
#308=EDGE_LOOP('',(#285,#293,#301,#307));
#309=FACE_OUTER_BOUND('',#308,.T.);
#310=ADVANCED_FACE('',(#309),#275,.T.);
#311=CARTESIAN_POINT('',(50.0,50.0,0.0));
#312=DIRECTION('',(1.0,0.0,0.0));
#313=DIRECTION('',(0.0,0.0,-1.0));
#314=AXIS2_PLACEMENT_3D('',#311,#312,#313);
#315=PLANE('',#314);
#316=CARTESIAN_POINT('',(50.0,-50.0,10.0));
#317=VERTEX_POINT('',#316);
#318=CARTESIAN_POINT('',(50.0,50.0,10.0));
#319=DIRECTION('',(0.0,-1.0,0.0));
#320=VECTOR('',#319,100.0);
#321=LINE('',#318,#320);
#322=EDGE_CURVE('',#279,#317,#321,.T.);
#323=ORIENTED_EDGE('',*,*,#322,.T.);
#324=CARTESIAN_POINT('',(50.0,-50.0,0.0));
#325=VERTEX_POINT('',#324);
#326=CARTESIAN_POINT('',(50.0,-50.0,0.0));
#327=DIRECTION('',(0.0,0.0,1.0));
#328=VECTOR('',#327,10.0);
#329=LINE('',#326,#328);
#330=EDGE_CURVE('',#325,#317,#329,.T.);
#331=ORIENTED_EDGE('',*,*,#330,.F.);
#332=CARTESIAN_POINT('',(50.0,50.0,0.0));
#333=DIRECTION('',(0.0,-1.0,0.0));
#334=VECTOR('',#333,100.0);
#335=LINE('',#332,#334);
#336=EDGE_CURVE('',#287,#325,#335,.T.);
#337=ORIENTED_EDGE('',*,*,#336,.F.);
#338=ORIENTED_EDGE('',*,*,#292,.T.);
#339=EDGE_LOOP('',(#323,#331,#337,#338));
#340=FACE_OUTER_BOUND('',#339,.T.);
#341=ADVANCED_FACE('',(#340),#315,.T.);
#342=CARTESIAN_POINT('',(50.0,-50.0,0.0));
#343=DIRECTION('',(0.0,-1.0,0.0));
#344=DIRECTION('',(0.0,0.0,-1.0));
#345=AXIS2_PLACEMENT_3D('',#342,#343,#344);
#346=PLANE('',#345);
#347=CARTESIAN_POINT('',(-50.0,-50.0,10.0));
#348=VERTEX_POINT('',#347);
#349=CARTESIAN_POINT('',(50.0,-50.0,10.0));
#350=DIRECTION('',(-1.0,0.0,0.0));
#351=VECTOR('',#350,100.0);
#352=LINE('',#349,#351);
#353=EDGE_CURVE('',#317,#348,#352,.T.);
#354=ORIENTED_EDGE('',*,*,#353,.T.);
#355=CARTESIAN_POINT('',(-50.0,-50.0,0.0));
#356=VERTEX_POINT('',#355);
#357=CARTESIAN_POINT('',(-50.0,-50.0,0.0));
#358=DIRECTION('',(0.0,0.0,1.0));
#359=VECTOR('',#358,10.0);
#360=LINE('',#357,#359);
#361=EDGE_CURVE('',#356,#348,#360,.T.);
#362=ORIENTED_EDGE('',*,*,#361,.F.);
#363=CARTESIAN_POINT('',(50.0,-50.0,0.0));
#364=DIRECTION('',(-1.0,0.0,0.0));
#365=VECTOR('',#364,100.0);
#366=LINE('',#363,#365);
#367=EDGE_CURVE('',#325,#356,#366,.T.);
#368=ORIENTED_EDGE('',*,*,#367,.F.);
#369=ORIENTED_EDGE('',*,*,#330,.T.);
#370=EDGE_LOOP('',(#354,#362,#368,#369));
#371=FACE_OUTER_BOUND('',#370,.T.);
#372=ADVANCED_FACE('',(#371),#346,.T.);
#373=CARTESIAN_POINT('',(-50.0,-50.0,0.0));
#374=DIRECTION('',(-1.0,0.0,0.0));
#375=DIRECTION('',(0.0,0.0,1.0));
#376=AXIS2_PLACEMENT_3D('',#373,#374,#375);
#377=PLANE('',#376);
#378=CARTESIAN_POINT('',(-50.0,-50.0,10.0));
#379=DIRECTION('',(0.0,1.0,0.0));
#380=VECTOR('',#379,100.0);
#381=LINE('',#378,#380);
#382=EDGE_CURVE('',#348,#277,#381,.T.);
#383=ORIENTED_EDGE('',*,*,#382,.T.);
#384=ORIENTED_EDGE('',*,*,#306,.F.);
#385=CARTESIAN_POINT('',(-50.0,-50.0,0.0));
#386=DIRECTION('',(0.0,1.0,0.0));
#387=VECTOR('',#386,100.0);
#388=LINE('',#385,#387);
#389=EDGE_CURVE('',#356,#295,#388,.T.);
#390=ORIENTED_EDGE('',*,*,#389,.F.);
#391=ORIENTED_EDGE('',*,*,#361,.T.);
#392=EDGE_LOOP('',(#383,#384,#390,#391));
#393=FACE_OUTER_BOUND('',#392,.T.);
#394=ADVANCED_FACE('',(#393),#377,.T.);
#395=CARTESIAN_POINT('',(-50.0,50.0,10.0));
#396=DIRECTION('',(0.0,0.0,-1.0));
#397=DIRECTION('',(-1.0,0.0,0.0));
#398=AXIS2_PLACEMENT_3D('',#395,#396,#397);
#399=PLANE('',#398);
#400=ORIENTED_EDGE('',*,*,#284,.F.);
#401=ORIENTED_EDGE('',*,*,#382,.F.);
#402=ORIENTED_EDGE('',*,*,#353,.F.);
#403=ORIENTED_EDGE('',*,*,#322,.F.);
#404=EDGE_LOOP('',(#400,#401,#402,#403));
#405=FACE_OUTER_BOUND('',#404,.T.);
#406=ORIENTED_EDGE('',*,*,#248,.T.);
#407=ORIENTED_EDGE('',*,*,#189,.T.);
#408=EDGE_LOOP('',(#406,#407));
#409=FACE_BOUND('',#408,.T.);
#410=ADVANCED_FACE('',(#405,#409),#399,.F.);
#411=CARTESIAN_POINT('',(0.0,0.0,0.0));
#412=DIRECTION('',(0.0,0.0,1.0));
#413=DIRECTION('',(1.0,0.0,0.0));
#414=AXIS2_PLACEMENT_3D('',#411,#412,#413);
#415=PLANE('',#414);
#416=ORIENTED_EDGE('',*,*,#389,.T.);
#417=ORIENTED_EDGE('',*,*,#300,.T.);
#418=ORIENTED_EDGE('',*,*,#336,.T.);
#419=ORIENTED_EDGE('',*,*,#367,.T.);
#420=EDGE_LOOP('',(#416,#417,#418,#419));
#421=FACE_OUTER_BOUND('',#420,.T.);
#422=ORIENTED_EDGE('',*,*,#264,.T.);
#423=ORIENTED_EDGE('',*,*,#162,.T.);
#424=EDGE_LOOP('',(#422,#423));
#425=FACE_BOUND('',#424,.T.);
#426=ADVANCED_FACE('',(#421,#425),#415,.F.);
#427=CLOSED_SHELL('',(#166,#208,#234,#252,#270,#310,#341,#372,#394,#410,#426));
#428=MANIFOLD_SOLID_BREP('486',#427);
#429=ADVANCED_BREP_SHAPE_REPRESENTATION('ABSR1',(#428),#28);
#430=SHAPE_REPRESENTATION_RELATIONSHIP('SRRPL1',' ',#429,#122);
ENDSEC;
END-ISO-10303-21;
