ISO-10303-21;
HEADER;
/****************************************************************
 * Generated by software with PDE/Lib inside                    *
 * PDElib Version v51a, created 12/06/2005 Tue                  *
 * International Technegroup Inc. (www.iti-oh.com)              *
 ****************************************************************/
FILE_DESCRIPTION((''),'2;1');
FILE_NAME('SZ0922N.stp','2009-07-27T13:51:57',(''),(''),'Mechanical Desktop 2007','Mechanical Desktop 2007',', , ');
FILE_SCHEMA(('CONFIG_CONTROL_DESIGN'));
ENDSEC;
DATA;
#8=(NAMED_UNIT(*)PLANE_ANGLE_UNIT()SI_UNIT($,.RADIAN.));
#9=DIMENSIONAL_EXPONENTS(0.0,0.0,0.0,0.0,0.0,0.0,0.0);
#10=PLANE_ANGLE_MEASURE_WITH_UNIT(PLANE_ANGLE_MEASURE(0.017453292500000),#8);
#14=(CONVERSION_BASED_UNIT('DEGREE',#10)NAMED_UNIT(#9)PLANE_ANGLE_UNIT());
#18=(NAMED_UNIT(*)SI_UNIT($,.STERADIAN.)SOLID_ANGLE_UNIT());
#22=(LENGTH_UNIT()NAMED_UNIT(*)SI_UNIT(.MILLI.,.METRE.));
#23=UNCERTAINTY_MEASURE_WITH_UNIT(LENGTH_MEASURE(0.000001000000000),#22,'DISTANCE_ACCURACY_VALUE','');
#28=(GEOMETRIC_REPRESENTATION_CONTEXT(3)GLOBAL_UNCERTAINTY_ASSIGNED_CONTEXT((#23))GLOBAL_UNIT_ASSIGNED_CONTEXT((#14,#18,#22))REPRESENTATION_CONTEXT('None','None'));
#29=APPLICATION_CONTEXT('CONFIGURATION CONTROLLED 3D DESIGNS OF MECHANICAL PARTS AND ASSEMBLIES');
#30=APPLICATION_PROTOCOL_DEFINITION('INTERNATIONAL STANDARD','config_control_design',1995,#29);
#31=MECHANICAL_CONTEXT('3D Mechanical Parts',#29,'mechanical');
#32=PRODUCT('SZ0922N','SZ0922N',' ',(#31));
#33=PRODUCT_RELATED_PRODUCT_CATEGORY('detail',$,(#32));
#34=PRODUCT_CATEGORY('part',$);
#35=PRODUCT_CATEGORY_RELATIONSHIP('None','None',#34,#33);
#36=PERSON('1','Design','Joe',$,$,$);
#37=ORGANIZATION($,'None','None');
#38=PERSON_AND_ORGANIZATION(#36,#37);
#39=PERSON_AND_ORGANIZATION_ROLE('design_owner');
#40=CC_DESIGN_PERSON_AND_ORGANIZATION_ASSIGNMENT(#38,#39,(#32));
#41=PRODUCT_DEFINITION_FORMATION_WITH_SPECIFIED_SOURCE('None','None',#32,.NOT_KNOWN.);
#42=PERSON('2','Creator','Joe',$,$,$);
#43=ORGANIZATION($,'None','None');
#44=PERSON_AND_ORGANIZATION(#42,#43);
#45=PERSON_AND_ORGANIZATION_ROLE('creator');
#46=CC_DESIGN_PERSON_AND_ORGANIZATION_ASSIGNMENT(#44,#45,(#41));
#47=PERSON('3','Supplier','Joe',$,$,$);
#48=ORGANIZATION($,'None','None');
#49=PERSON_AND_ORGANIZATION(#47,#48);
#50=PERSON_AND_ORGANIZATION_ROLE('design_supplier');
#51=CC_DESIGN_PERSON_AND_ORGANIZATION_ASSIGNMENT(#49,#50,(#41));
#52=APPROVAL_STATUS('approved');
#53=APPROVAL(#52,'None');
#54=PERSON('4','Approver','Joe',$,$,$);
#55=ORGANIZATION($,'None','None');
#56=PERSON_AND_ORGANIZATION(#54,#55);
#57=APPROVAL_ROLE('approver');
#58=APPROVAL_PERSON_ORGANIZATION(#56,#53,#57);
#59=COORDINATED_UNIVERSAL_TIME_OFFSET(8,$,.BEHIND.);
#60=CALENDAR_DATE(1996,29,5);
#61=LOCAL_TIME(12,0,0.0,#59);
#62=DATE_AND_TIME(#60,#61);
#63=APPROVAL_DATE_TIME(#62,#53);
#64=CC_DESIGN_APPROVAL(#53,(#41));
#65=SECURITY_CLASSIFICATION_LEVEL('unclassified');
#66=SECURITY_CLASSIFICATION('security','None',#65);
#67=CC_DESIGN_SECURITY_CLASSIFICATION(#66,(#41));
#68=APPROVAL_STATUS('approved');
#69=APPROVAL(#68,'None');
#70=PERSON('5','Approver','Joe',$,$,$);
#71=ORGANIZATION($,'None','None');
#72=PERSON_AND_ORGANIZATION(#70,#71);
#73=APPROVAL_ROLE('approver');
#74=APPROVAL_PERSON_ORGANIZATION(#72,#69,#73);
#75=COORDINATED_UNIVERSAL_TIME_OFFSET(8,$,.BEHIND.);
#76=CALENDAR_DATE(1996,29,5);
#77=LOCAL_TIME(12,0,0.0,#75);
#78=DATE_AND_TIME(#76,#77);
#79=APPROVAL_DATE_TIME(#78,#69);
#80=CC_DESIGN_APPROVAL(#69,(#66));
#81=PERSON('6','Classifier','Joe',$,$,$);
#82=ORGANIZATION($,'None','None');
#83=PERSON_AND_ORGANIZATION(#81,#82);
#84=PERSON_AND_ORGANIZATION_ROLE('classification_officer');
#85=CC_DESIGN_PERSON_AND_ORGANIZATION_ASSIGNMENT(#83,#84,(#66));
#86=COORDINATED_UNIVERSAL_TIME_OFFSET(8,$,.BEHIND.);
#87=CALENDAR_DATE(1996,29,5);
#88=LOCAL_TIME(12,0,0.0,#86);
#89=DATE_AND_TIME(#87,#88);
#90=DATE_TIME_ROLE('classification_date');
#91=CC_DESIGN_DATE_AND_TIME_ASSIGNMENT(#89,#90,(#66));
#92=DESIGN_CONTEXT('Design Context',#29,'design');
#93=PRODUCT_DEFINITION('None','None',#41,#92);
#94=PERSON('7','Creator','Joe',$,$,$);
#95=ORGANIZATION($,'None','None');
#96=PERSON_AND_ORGANIZATION(#94,#95);
#97=PERSON_AND_ORGANIZATION_ROLE('creator');
#98=CC_DESIGN_PERSON_AND_ORGANIZATION_ASSIGNMENT(#96,#97,(#93));
#99=COORDINATED_UNIVERSAL_TIME_OFFSET(8,$,.BEHIND.);
#100=CALENDAR_DATE(1996,29,5);
#101=LOCAL_TIME(12,0,0.0,#99);
#102=DATE_AND_TIME(#100,#101);
#103=DATE_TIME_ROLE('creation_date');
#104=CC_DESIGN_DATE_AND_TIME_ASSIGNMENT(#102,#103,(#93));
#105=APPROVAL_STATUS('approved');
#106=APPROVAL(#105,'None');
#107=PERSON('8','Approver','Joe',$,$,$);
#108=ORGANIZATION($,'None','None');
#109=PERSON_AND_ORGANIZATION(#107,#108);
#110=APPROVAL_ROLE('approver');
#111=APPROVAL_PERSON_ORGANIZATION(#109,#106,#110);
#112=COORDINATED_UNIVERSAL_TIME_OFFSET(8,$,.BEHIND.);
#113=CALENDAR_DATE(1996,29,5);
#114=LOCAL_TIME(12,0,0.0,#112);
#115=DATE_AND_TIME(#113,#114);
#116=APPROVAL_DATE_TIME(#115,#106);
#117=CC_DESIGN_APPROVAL(#106,(#93));
#118=CARTESIAN_POINT('NONE',(0.0,0.0,0.0));
#119=DIRECTION('NONE',(0.0,0.0,1.0));
#120=DIRECTION('NONE',(1.0,0.0,0.0));
#121=AXIS2_PLACEMENT_3D('NONE',#118,#119,#120);
#122=SHAPE_REPRESENTATION('SR1',(#121),#28);
#123=PRODUCT_DEFINITION_SHAPE('PDS1','Test Part',#93);
#124=SHAPE_DEFINITION_REPRESENTATION(#123,#122);
#125=CARTESIAN_POINT('',(10.0,64.282032302755113,32.500000000000000));
#126=DIRECTION('',(0.0,1.0,0.0));
#127=DIRECTION('',(0.0,0.0,-1.0));
#128=AXIS2_PLACEMENT_3D('',#125,#126,#127);
#129=CYLINDRICAL_SURFACE('',#128,3.250000000000000);
#130=CARTESIAN_POINT('',(10.0,-5.0,29.250000000000000));
#131=VERTEX_POINT('',#130);
#132=CARTESIAN_POINT('',(10.0,0.0,29.250000000000000));
#133=VERTEX_POINT('',#132);
#134=CARTESIAN_POINT('',(10.0,-5.0,29.250000000000000));
#135=DIRECTION('',(0.0,1.0,0.0));
#136=VECTOR('',#135,5.0);
#137=LINE('',#134,#136);
#138=EDGE_CURVE('',#131,#133,#137,.T.);
#139=ORIENTED_EDGE('',*,*,#138,.F.);
#140=CARTESIAN_POINT('',(10.0,-5.0,35.750000000000000));
#141=VERTEX_POINT('',#140);
#142=CARTESIAN_POINT('',(10.0,-5.0,32.500000000000000));
#143=DIRECTION('',(0.0,1.0,0.0));
#144=DIRECTION('',(0.0,0.0,-1.0));
#145=AXIS2_PLACEMENT_3D('',#142,#143,#144);
#146=CIRCLE('',#145,3.250000000000000);
#147=EDGE_CURVE('',#141,#131,#146,.T.);
#148=ORIENTED_EDGE('',*,*,#147,.F.);
#149=CARTESIAN_POINT('',(10.000000000000028,0.0,35.750000000000000));
#150=VERTEX_POINT('',#149);
#151=CARTESIAN_POINT('',(10.0,-5.0,35.750000000000000));
#152=DIRECTION('',(0.0,1.0,0.0));
#153=VECTOR('',#152,5.0);
#154=LINE('',#151,#153);
#155=EDGE_CURVE('',#141,#150,#154,.T.);
#156=ORIENTED_EDGE('',*,*,#155,.T.);
#157=CARTESIAN_POINT('',(10.0,0.0,32.500000000000000));
#158=DIRECTION('',(0.0,-1.0,0.0));
#159=DIRECTION('',(0.0,0.0,-1.0));
#160=AXIS2_PLACEMENT_3D('',#157,#158,#159);
#161=CIRCLE('',#160,3.250000000000000);
#162=EDGE_CURVE('',#133,#150,#161,.T.);
#163=ORIENTED_EDGE('',*,*,#162,.F.);
#164=EDGE_LOOP('',(#139,#148,#156,#163));
#165=FACE_OUTER_BOUND('',#164,.T.);
#166=ADVANCED_FACE('',(#165),#129,.F.);
#167=CARTESIAN_POINT('',(10.0,64.282032302755113,12.500000000000000));
#168=DIRECTION('',(0.0,1.0,0.0));
#169=DIRECTION('',(0.0,0.0,-1.0));
#170=AXIS2_PLACEMENT_3D('',#167,#168,#169);
#171=CYLINDRICAL_SURFACE('',#170,3.250000000000000);
#172=CARTESIAN_POINT('',(10.0,-5.0,9.250000000000000));
#173=VERTEX_POINT('',#172);
#174=CARTESIAN_POINT('',(10.0,0.0,9.250000000000000));
#175=VERTEX_POINT('',#174);
#176=CARTESIAN_POINT('',(10.0,-5.0,9.250000000000000));
#177=DIRECTION('',(0.0,1.0,0.0));
#178=VECTOR('',#177,5.0);
#179=LINE('',#176,#178);
#180=EDGE_CURVE('',#173,#175,#179,.T.);
#181=ORIENTED_EDGE('',*,*,#180,.F.);
#182=CARTESIAN_POINT('',(10.0,-5.0,15.750000000000000));
#183=VERTEX_POINT('',#182);
#184=CARTESIAN_POINT('',(10.0,-5.0,12.500000000000000));
#185=DIRECTION('',(0.0,1.0,0.0));
#186=DIRECTION('',(0.0,0.0,-1.0));
#187=AXIS2_PLACEMENT_3D('',#184,#185,#186);
#188=CIRCLE('',#187,3.250000000000000);
#189=EDGE_CURVE('',#183,#173,#188,.T.);
#190=ORIENTED_EDGE('',*,*,#189,.F.);
#191=CARTESIAN_POINT('',(10.000000000000028,0.0,15.750000000000000));
#192=VERTEX_POINT('',#191);
#193=CARTESIAN_POINT('',(10.0,-5.0,15.750000000000000));
#194=DIRECTION('',(0.0,1.0,0.0));
#195=VECTOR('',#194,5.0);
#196=LINE('',#193,#195);
#197=EDGE_CURVE('',#183,#192,#196,.T.);
#198=ORIENTED_EDGE('',*,*,#197,.T.);
#199=CARTESIAN_POINT('',(10.0,0.0,12.500000000000000));
#200=DIRECTION('',(0.0,-1.0,0.0));
#201=DIRECTION('',(0.0,0.0,-1.0));
#202=AXIS2_PLACEMENT_3D('',#199,#200,#201);
#203=CIRCLE('',#202,3.250000000000000);
#204=EDGE_CURVE('',#175,#192,#203,.T.);
#205=ORIENTED_EDGE('',*,*,#204,.F.);
#206=EDGE_LOOP('',(#181,#190,#198,#205));
#207=FACE_OUTER_BOUND('',#206,.T.);
#208=ADVANCED_FACE('',(#207),#171,.F.);
#209=CARTESIAN_POINT('',(20.0,0.0,0.0));
#210=DIRECTION('',(1.0,0.0,0.0));
#211=DIRECTION('',(0.0,0.0,-1.0));
#212=AXIS2_PLACEMENT_3D('',#209,#210,#211);
#213=PLANE('',#212);
#214=CARTESIAN_POINT('',(20.0,-40.0,0.0));
#215=VERTEX_POINT('',#214);
#216=CARTESIAN_POINT('',(20.0,-40.0,5.0));
#217=VERTEX_POINT('',#216);
#218=CARTESIAN_POINT('',(20.0,-40.0,0.0));
#219=DIRECTION('',(0.0,0.0,1.0));
#220=VECTOR('',#219,5.0);
#221=LINE('',#218,#220);
#222=EDGE_CURVE('',#215,#217,#221,.T.);
#223=ORIENTED_EDGE('',*,*,#222,.F.);
#224=CARTESIAN_POINT('',(20.0,0.0,0.0));
#225=VERTEX_POINT('',#224);
#226=CARTESIAN_POINT('',(20.0,0.0,0.0));
#227=DIRECTION('',(0.0,-1.0,0.0));
#228=VECTOR('',#227,40.0);
#229=LINE('',#226,#228);
#230=EDGE_CURVE('',#225,#215,#229,.T.);
#231=ORIENTED_EDGE('',*,*,#230,.F.);
#232=CARTESIAN_POINT('',(20.0,0.0,40.0));
#233=VERTEX_POINT('',#232);
#234=CARTESIAN_POINT('',(20.0,0.0,40.0));
#235=DIRECTION('',(0.0,0.0,-1.0));
#236=VECTOR('',#235,40.0);
#237=LINE('',#234,#236);
#238=EDGE_CURVE('',#233,#225,#237,.T.);
#239=ORIENTED_EDGE('',*,*,#238,.F.);
#240=CARTESIAN_POINT('',(20.0,-5.0,40.0));
#241=VERTEX_POINT('',#240);
#242=CARTESIAN_POINT('',(20.0,-5.0,40.0));
#243=DIRECTION('',(0.0,1.0,0.0));
#244=VECTOR('',#243,5.0);
#245=LINE('',#242,#244);
#246=EDGE_CURVE('',#241,#233,#245,.T.);
#247=ORIENTED_EDGE('',*,*,#246,.F.);
#248=CARTESIAN_POINT('',(20.0,-5.0,5.0));
#249=VERTEX_POINT('',#248);
#250=CARTESIAN_POINT('',(20.0,-5.0,5.0));
#251=DIRECTION('',(0.0,0.0,1.0));
#252=VECTOR('',#251,35.0);
#253=LINE('',#250,#252);
#254=EDGE_CURVE('',#249,#241,#253,.T.);
#255=ORIENTED_EDGE('',*,*,#254,.F.);
#256=CARTESIAN_POINT('',(20.0,-40.0,5.0));
#257=DIRECTION('',(0.0,1.0,0.0));
#258=VECTOR('',#257,35.0);
#259=LINE('',#256,#258);
#260=EDGE_CURVE('',#217,#249,#259,.T.);
#261=ORIENTED_EDGE('',*,*,#260,.F.);
#262=EDGE_LOOP('',(#223,#231,#239,#247,#255,#261));
#263=FACE_OUTER_BOUND('',#262,.T.);
#264=ADVANCED_FACE('',(#263),#213,.T.);
#265=CARTESIAN_POINT('',(10.0,-20.0,0.0));
#266=DIRECTION('',(0.0,0.0,1.0));
#267=DIRECTION('',(1.0,0.0,0.0));
#268=AXIS2_PLACEMENT_3D('',#265,#266,#267);
#269=PLANE('',#268);
#270=ORIENTED_EDGE('',*,*,#230,.T.);
#271=CARTESIAN_POINT('',(0.0,-40.0,0.0));
#272=VERTEX_POINT('',#271);
#273=CARTESIAN_POINT('',(20.0,-40.0,0.0));
#274=DIRECTION('',(-1.0,0.0,0.0));
#275=VECTOR('',#274,20.0);
#276=LINE('',#273,#275);
#277=EDGE_CURVE('',#215,#272,#276,.T.);
#278=ORIENTED_EDGE('',*,*,#277,.T.);
#279=CARTESIAN_POINT('',(0.0,0.0,0.0));
#280=VERTEX_POINT('',#279);
#281=CARTESIAN_POINT('',(0.0,-40.0,0.0));
#282=DIRECTION('',(0.0,1.0,0.0));
#283=VECTOR('',#282,40.0);
#284=LINE('',#281,#283);
#285=EDGE_CURVE('',#272,#280,#284,.T.);
#286=ORIENTED_EDGE('',*,*,#285,.T.);
#287=CARTESIAN_POINT('',(0.0,0.0,0.0));
#288=DIRECTION('',(1.0,0.0,0.0));
#289=VECTOR('',#288,20.0);
#290=LINE('',#287,#289);
#291=EDGE_CURVE('',#280,#225,#290,.T.);
#292=ORIENTED_EDGE('',*,*,#291,.T.);
#293=EDGE_LOOP('',(#270,#278,#286,#292));
#294=FACE_OUTER_BOUND('',#293,.T.);
#295=CARTESIAN_POINT('',(6.750000000000000,-12.500000000000028,0.0));
#296=VERTEX_POINT('',#295);
#297=CARTESIAN_POINT('',(6.750000000000000,-32.500000000000000,0.0));
#298=VERTEX_POINT('',#297);
#299=CARTESIAN_POINT('',(6.750000000000000,-12.500000000000028,0.0));
#300=DIRECTION('',(0.0,-1.0,0.0));
#301=VECTOR('',#300,19.999999999999972);
#302=LINE('',#299,#301);
#303=EDGE_CURVE('',#296,#298,#302,.T.);
#304=ORIENTED_EDGE('',*,*,#303,.T.);
#305=CARTESIAN_POINT('',(13.250000000000000,-32.500000000000000,0.0));
#306=VERTEX_POINT('',#305);
#307=CARTESIAN_POINT('',(10.0,-32.500000000000000,0.0));
#308=DIRECTION('',(0.0,0.0,1.0));
#309=DIRECTION('',(1.0,0.0,0.0));
#310=AXIS2_PLACEMENT_3D('',#307,#308,#309);
#311=CIRCLE('',#310,3.250000000000000);
#312=EDGE_CURVE('',#298,#306,#311,.T.);
#313=ORIENTED_EDGE('',*,*,#312,.T.);
#314=CARTESIAN_POINT('',(13.250000000000000,-12.500000000000028,0.0));
#315=VERTEX_POINT('',#314);
#316=CARTESIAN_POINT('',(13.250000000000000,-32.500000000000000,0.0));
#317=DIRECTION('',(0.0,1.0,0.0));
#318=VECTOR('',#317,19.999999999999972);
#319=LINE('',#316,#318);
#320=EDGE_CURVE('',#306,#315,#319,.T.);
#321=ORIENTED_EDGE('',*,*,#320,.T.);
#322=CARTESIAN_POINT('',(10.0,-12.500000000000028,0.0));
#323=DIRECTION('',(0.0,0.0,1.0));
#324=DIRECTION('',(1.0,0.0,0.0));
#325=AXIS2_PLACEMENT_3D('',#322,#323,#324);
#326=CIRCLE('',#325,3.250000000000000);
#327=EDGE_CURVE('',#315,#296,#326,.T.);
#328=ORIENTED_EDGE('',*,*,#327,.T.);
#329=EDGE_LOOP('',(#304,#313,#321,#328));
#330=FACE_BOUND('',#329,.T.);
#331=ADVANCED_FACE('',(#294,#330),#269,.F.);
#332=CARTESIAN_POINT('',(30.0,-40.0,0.0));
#333=DIRECTION('',(0.0,-1.0,0.0));
#334=DIRECTION('',(0.0,0.0,-1.0));
#335=AXIS2_PLACEMENT_3D('',#332,#333,#334);
#336=PLANE('',#335);
#337=ORIENTED_EDGE('',*,*,#222,.T.);
#338=CARTESIAN_POINT('',(0.0,-40.0,5.0));
#339=VERTEX_POINT('',#338);
#340=CARTESIAN_POINT('',(20.0,-40.0,5.0));
#341=DIRECTION('',(-1.0,0.0,0.0));
#342=VECTOR('',#341,20.0);
#343=LINE('',#340,#342);
#344=EDGE_CURVE('',#217,#339,#343,.T.);
#345=ORIENTED_EDGE('',*,*,#344,.T.);
#346=CARTESIAN_POINT('',(0.0,-40.0,5.0));
#347=DIRECTION('',(0.0,0.0,-1.0));
#348=VECTOR('',#347,5.0);
#349=LINE('',#346,#348);
#350=EDGE_CURVE('',#339,#272,#349,.T.);
#351=ORIENTED_EDGE('',*,*,#350,.T.);
#352=ORIENTED_EDGE('',*,*,#277,.F.);
#353=EDGE_LOOP('',(#337,#345,#351,#352));
#354=FACE_OUTER_BOUND('',#353,.T.);
#355=ADVANCED_FACE('',(#354),#336,.T.);
#356=CARTESIAN_POINT('',(-10.0,0.0,5.0));
#357=DIRECTION('',(0.0,0.0,-1.0));
#358=DIRECTION('',(-1.0,0.0,0.0));
#359=AXIS2_PLACEMENT_3D('',#356,#357,#358);
#360=PLANE('',#359);
#361=ORIENTED_EDGE('',*,*,#260,.T.);
#362=CARTESIAN_POINT('',(0.0,-5.0,5.0));
#363=VERTEX_POINT('',#362);
#364=CARTESIAN_POINT('',(20.0,-5.0,5.0));
#365=DIRECTION('',(-1.0,0.0,0.0));
#366=VECTOR('',#365,20.0);
#367=LINE('',#364,#366);
#368=EDGE_CURVE('',#249,#363,#367,.T.);
#369=ORIENTED_EDGE('',*,*,#368,.T.);
#370=CARTESIAN_POINT('',(0.0,-5.0,5.0));
#371=DIRECTION('',(0.0,-1.0,0.0));
#372=VECTOR('',#371,35.0);
#373=LINE('',#370,#372);
#374=EDGE_CURVE('',#363,#339,#373,.T.);
#375=ORIENTED_EDGE('',*,*,#374,.T.);
#376=ORIENTED_EDGE('',*,*,#344,.F.);
#377=EDGE_LOOP('',(#361,#369,#375,#376));
#378=FACE_OUTER_BOUND('',#377,.T.);
#379=CARTESIAN_POINT('',(6.750000000000000,-32.500000000000000,5.0));
#380=VERTEX_POINT('',#379);
#381=CARTESIAN_POINT('',(6.750000000000000,-12.500000000000028,5.0));
#382=VERTEX_POINT('',#381);
#383=CARTESIAN_POINT('',(6.750000000000000,-32.500000000000000,5.0));
#384=DIRECTION('',(0.0,1.0,0.0));
#385=VECTOR('',#384,19.999999999999972);
#386=LINE('',#383,#385);
#387=EDGE_CURVE('',#380,#382,#386,.T.);
#388=ORIENTED_EDGE('',*,*,#387,.T.);
#389=CARTESIAN_POINT('',(13.250000000000000,-12.500000000000028,5.0));
#390=VERTEX_POINT('',#389);
#391=CARTESIAN_POINT('',(10.0,-12.500000000000028,5.0));
#392=DIRECTION('',(0.0,0.0,-1.0));
#393=DIRECTION('',(1.0,0.0,0.0));
#394=AXIS2_PLACEMENT_3D('',#391,#392,#393);
#395=CIRCLE('',#394,3.250000000000000);
#396=EDGE_CURVE('',#382,#390,#395,.T.);
#397=ORIENTED_EDGE('',*,*,#396,.T.);
#398=CARTESIAN_POINT('',(13.250000000000000,-32.500000000000000,5.0));
#399=VERTEX_POINT('',#398);
#400=CARTESIAN_POINT('',(13.250000000000000,-12.500000000000028,5.0));
#401=DIRECTION('',(0.0,-1.0,0.0));
#402=VECTOR('',#401,19.999999999999972);
#403=LINE('',#400,#402);
#404=EDGE_CURVE('',#390,#399,#403,.T.);
#405=ORIENTED_EDGE('',*,*,#404,.T.);
#406=CARTESIAN_POINT('',(10.0,-32.500000000000000,5.0));
#407=DIRECTION('',(0.0,0.0,-1.0));
#408=DIRECTION('',(1.0,0.0,0.0));
#409=AXIS2_PLACEMENT_3D('',#406,#407,#408);
#410=CIRCLE('',#409,3.250000000000000);
#411=EDGE_CURVE('',#399,#380,#410,.T.);
#412=ORIENTED_EDGE('',*,*,#411,.T.);
#413=EDGE_LOOP('',(#388,#397,#405,#412));
#414=FACE_BOUND('',#413,.T.);
#415=ADVANCED_FACE('',(#378,#414),#360,.F.);
#416=CARTESIAN_POINT('',(0.0,-40.0,0.0));
#417=DIRECTION('',(-1.0,0.0,0.0));
#418=DIRECTION('',(0.0,0.0,1.0));
#419=AXIS2_PLACEMENT_3D('',#416,#417,#418);
#420=PLANE('',#419);
#421=CARTESIAN_POINT('',(0.0,-5.0,40.0));
#422=VERTEX_POINT('',#421);
#423=CARTESIAN_POINT('',(0.0,-5.0,40.0));
#424=DIRECTION('',(0.0,0.0,-1.0));
#425=VECTOR('',#424,35.0);
#426=LINE('',#423,#425);
#427=EDGE_CURVE('',#422,#363,#426,.T.);
#428=ORIENTED_EDGE('',*,*,#427,.F.);
#429=CARTESIAN_POINT('',(0.0,0.0,40.0));
#430=VERTEX_POINT('',#429);
#431=CARTESIAN_POINT('',(0.0,0.0,40.0));
#432=DIRECTION('',(0.0,-1.0,0.0));
#433=VECTOR('',#432,5.0);
#434=LINE('',#431,#433);
#435=EDGE_CURVE('',#430,#422,#434,.T.);
#436=ORIENTED_EDGE('',*,*,#435,.F.);
#437=CARTESIAN_POINT('',(0.0,0.0,0.0));
#438=DIRECTION('',(0.0,0.0,1.0));
#439=VECTOR('',#438,40.0);
#440=LINE('',#437,#439);
#441=EDGE_CURVE('',#280,#430,#440,.T.);
#442=ORIENTED_EDGE('',*,*,#441,.F.);
#443=ORIENTED_EDGE('',*,*,#285,.F.);
#444=ORIENTED_EDGE('',*,*,#350,.F.);
#445=ORIENTED_EDGE('',*,*,#374,.F.);
#446=EDGE_LOOP('',(#428,#436,#442,#443,#444,#445));
#447=FACE_OUTER_BOUND('',#446,.T.);
#448=ADVANCED_FACE('',(#447),#420,.T.);
#449=CARTESIAN_POINT('',(-10.0,0.0,40.0));
#450=DIRECTION('',(0.0,0.0,-1.0));
#451=DIRECTION('',(-1.0,0.0,0.0));
#452=AXIS2_PLACEMENT_3D('',#449,#450,#451);
#453=PLANE('',#452);
#454=ORIENTED_EDGE('',*,*,#246,.T.);
#455=CARTESIAN_POINT('',(0.0,0.0,40.0));
#456=DIRECTION('',(1.0,0.0,0.0));
#457=VECTOR('',#456,20.0);
#458=LINE('',#455,#457);
#459=EDGE_CURVE('',#430,#233,#458,.T.);
#460=ORIENTED_EDGE('',*,*,#459,.F.);
#461=ORIENTED_EDGE('',*,*,#435,.T.);
#462=CARTESIAN_POINT('',(20.0,-5.0,40.0));
#463=DIRECTION('',(-1.0,0.0,0.0));
#464=VECTOR('',#463,20.0);
#465=LINE('',#462,#464);
#466=EDGE_CURVE('',#241,#422,#465,.T.);
#467=ORIENTED_EDGE('',*,*,#466,.F.);
#468=EDGE_LOOP('',(#454,#460,#461,#467));
#469=FACE_OUTER_BOUND('',#468,.T.);
#470=ADVANCED_FACE('',(#469),#453,.F.);
#471=CARTESIAN_POINT('',(30.0,-5.0,5.0));
#472=DIRECTION('',(0.0,-1.0,0.0));
#473=DIRECTION('',(0.0,0.0,-1.0));
#474=AXIS2_PLACEMENT_3D('',#471,#472,#473);
#475=PLANE('',#474);
#476=ORIENTED_EDGE('',*,*,#254,.T.);
#477=ORIENTED_EDGE('',*,*,#466,.T.);
#478=ORIENTED_EDGE('',*,*,#427,.T.);
#479=ORIENTED_EDGE('',*,*,#368,.F.);
#480=EDGE_LOOP('',(#476,#477,#478,#479));
#481=FACE_OUTER_BOUND('',#480,.T.);
#482=CARTESIAN_POINT('',(10.0,-5.0,32.500000000000000));
#483=DIRECTION('',(0.0,1.0,0.0));
#484=DIRECTION('',(0.0,0.0,-1.0));
#485=AXIS2_PLACEMENT_3D('',#482,#483,#484);
#486=CIRCLE('',#485,3.250000000000000);
#487=EDGE_CURVE('',#131,#141,#486,.T.);
#488=ORIENTED_EDGE('',*,*,#487,.T.);
#489=ORIENTED_EDGE('',*,*,#147,.T.);
#490=EDGE_LOOP('',(#488,#489));
#491=FACE_BOUND('',#490,.T.);
#492=CARTESIAN_POINT('',(10.0,-5.0,12.500000000000000));
#493=DIRECTION('',(0.0,1.0,0.0));
#494=DIRECTION('',(0.0,0.0,-1.0));
#495=AXIS2_PLACEMENT_3D('',#492,#493,#494);
#496=CIRCLE('',#495,3.250000000000000);
#497=EDGE_CURVE('',#173,#183,#496,.T.);
#498=ORIENTED_EDGE('',*,*,#497,.T.);
#499=ORIENTED_EDGE('',*,*,#189,.T.);
#500=EDGE_LOOP('',(#498,#499));
#501=FACE_BOUND('',#500,.T.);
#502=ADVANCED_FACE('',(#481,#491,#501),#475,.T.);
#503=CARTESIAN_POINT('',(10.0,64.282032302755113,12.500000000000000));
#504=DIRECTION('',(0.0,1.0,0.0));
#505=DIRECTION('',(0.0,0.0,-1.0));
#506=AXIS2_PLACEMENT_3D('',#503,#504,#505);
#507=CYLINDRICAL_SURFACE('',#506,3.250000000000000);
#508=ORIENTED_EDGE('',*,*,#180,.T.);
#509=CARTESIAN_POINT('',(10.0,0.0,12.500000000000000));
#510=DIRECTION('',(0.0,-1.0,0.0));
#511=DIRECTION('',(0.0,0.0,-1.0));
#512=AXIS2_PLACEMENT_3D('',#509,#510,#511);
#513=CIRCLE('',#512,3.250000000000000);
#514=EDGE_CURVE('',#192,#175,#513,.T.);
#515=ORIENTED_EDGE('',*,*,#514,.F.);
#516=ORIENTED_EDGE('',*,*,#197,.F.);
#517=ORIENTED_EDGE('',*,*,#497,.F.);
#518=EDGE_LOOP('',(#508,#515,#516,#517));
#519=FACE_OUTER_BOUND('',#518,.T.);
#520=ADVANCED_FACE('',(#519),#507,.F.);
#521=CARTESIAN_POINT('',(10.0,64.282032302755113,32.500000000000000));
#522=DIRECTION('',(0.0,1.0,0.0));
#523=DIRECTION('',(0.0,0.0,-1.0));
#524=AXIS2_PLACEMENT_3D('',#521,#522,#523);
#525=CYLINDRICAL_SURFACE('',#524,3.250000000000000);
#526=ORIENTED_EDGE('',*,*,#138,.T.);
#527=CARTESIAN_POINT('',(10.0,0.0,32.500000000000000));
#528=DIRECTION('',(0.0,-1.0,0.0));
#529=DIRECTION('',(0.0,0.0,-1.0));
#530=AXIS2_PLACEMENT_3D('',#527,#528,#529);
#531=CIRCLE('',#530,3.250000000000000);
#532=EDGE_CURVE('',#150,#133,#531,.T.);
#533=ORIENTED_EDGE('',*,*,#532,.F.);
#534=ORIENTED_EDGE('',*,*,#155,.F.);
#535=ORIENTED_EDGE('',*,*,#487,.F.);
#536=EDGE_LOOP('',(#526,#533,#534,#535));
#537=FACE_OUTER_BOUND('',#536,.T.);
#538=ADVANCED_FACE('',(#537),#525,.F.);
#539=CARTESIAN_POINT('',(6.750000000000000,-32.500000000000000,0.0));
#540=DIRECTION('',(-1.0,0.0,0.0));
#541=DIRECTION('',(0.0,0.0,1.0));
#542=AXIS2_PLACEMENT_3D('',#539,#540,#541);
#543=PLANE('',#542);
#544=ORIENTED_EDGE('',*,*,#387,.F.);
#545=CARTESIAN_POINT('',(6.750000000000000,-32.500000000000000,0.0));
#546=DIRECTION('',(0.0,0.0,1.0));
#547=VECTOR('',#546,5.0);
#548=LINE('',#545,#547);
#549=EDGE_CURVE('',#298,#380,#548,.T.);
#550=ORIENTED_EDGE('',*,*,#549,.F.);
#551=ORIENTED_EDGE('',*,*,#303,.F.);
#552=CARTESIAN_POINT('',(6.750000000000000,-12.500000000000028,0.0));
#553=DIRECTION('',(0.0,0.0,1.0));
#554=VECTOR('',#553,5.0);
#555=LINE('',#552,#554);
#556=EDGE_CURVE('',#296,#382,#555,.T.);
#557=ORIENTED_EDGE('',*,*,#556,.T.);
#558=EDGE_LOOP('',(#544,#550,#551,#557));
#559=FACE_OUTER_BOUND('',#558,.T.);
#560=ADVANCED_FACE('',(#559),#543,.F.);
#561=CARTESIAN_POINT('',(10.0,-12.500000000000028,0.0));
#562=DIRECTION('',(0.0,0.0,1.0));
#563=DIRECTION('',(1.0,0.0,0.0));
#564=AXIS2_PLACEMENT_3D('',#561,#562,#563);
#565=CYLINDRICAL_SURFACE('',#564,3.250000000000000);
#566=ORIENTED_EDGE('',*,*,#396,.F.);
#567=ORIENTED_EDGE('',*,*,#556,.F.);
#568=ORIENTED_EDGE('',*,*,#327,.F.);
#569=CARTESIAN_POINT('',(13.250000000000000,-12.500000000000028,0.0));
#570=DIRECTION('',(0.0,0.0,1.0));
#571=VECTOR('',#570,5.0);
#572=LINE('',#569,#571);
#573=EDGE_CURVE('',#315,#390,#572,.T.);
#574=ORIENTED_EDGE('',*,*,#573,.T.);
#575=EDGE_LOOP('',(#566,#567,#568,#574));
#576=FACE_OUTER_BOUND('',#575,.T.);
#577=ADVANCED_FACE('',(#576),#565,.F.);
#578=CARTESIAN_POINT('',(13.250000000000000,-12.500000000000028,0.0));
#579=DIRECTION('',(1.0,0.0,0.0));
#580=DIRECTION('',(0.0,0.0,-1.0));
#581=AXIS2_PLACEMENT_3D('',#578,#579,#580);
#582=PLANE('',#581);
#583=ORIENTED_EDGE('',*,*,#404,.F.);
#584=ORIENTED_EDGE('',*,*,#573,.F.);
#585=ORIENTED_EDGE('',*,*,#320,.F.);
#586=CARTESIAN_POINT('',(13.250000000000000,-32.500000000000000,0.0));
#587=DIRECTION('',(0.0,0.0,1.0));
#588=VECTOR('',#587,5.0);
#589=LINE('',#586,#588);
#590=EDGE_CURVE('',#306,#399,#589,.T.);
#591=ORIENTED_EDGE('',*,*,#590,.T.);
#592=EDGE_LOOP('',(#583,#584,#585,#591));
#593=FACE_OUTER_BOUND('',#592,.T.);
#594=ADVANCED_FACE('',(#593),#582,.F.);
#595=CARTESIAN_POINT('',(10.0,-32.500000000000000,0.0));
#596=DIRECTION('',(0.0,0.0,1.0));
#597=DIRECTION('',(1.0,0.0,0.0));
#598=AXIS2_PLACEMENT_3D('',#595,#596,#597);
#599=CYLINDRICAL_SURFACE('',#598,3.250000000000000);
#600=ORIENTED_EDGE('',*,*,#411,.F.);
#601=ORIENTED_EDGE('',*,*,#590,.F.);
#602=ORIENTED_EDGE('',*,*,#312,.F.);
#603=ORIENTED_EDGE('',*,*,#549,.T.);
#604=EDGE_LOOP('',(#600,#601,#602,#603));
#605=FACE_OUTER_BOUND('',#604,.T.);
#606=ADVANCED_FACE('',(#605),#599,.F.);
#607=CARTESIAN_POINT('',(-10.0,0.0,0.0));
#608=DIRECTION('',(0.0,1.0,0.0));
#609=DIRECTION('',(0.0,0.0,1.0));
#610=AXIS2_PLACEMENT_3D('',#607,#608,#609);
#611=PLANE('',#610);
#612=ORIENTED_EDGE('',*,*,#238,.T.);
#613=ORIENTED_EDGE('',*,*,#291,.F.);
#614=ORIENTED_EDGE('',*,*,#441,.T.);
#615=ORIENTED_EDGE('',*,*,#459,.T.);
#616=EDGE_LOOP('',(#612,#613,#614,#615));
#617=FACE_OUTER_BOUND('',#616,.T.);
#618=ORIENTED_EDGE('',*,*,#514,.T.);
#619=ORIENTED_EDGE('',*,*,#204,.T.);
#620=EDGE_LOOP('',(#618,#619));
#621=FACE_BOUND('',#620,.T.);
#622=ORIENTED_EDGE('',*,*,#532,.T.);
#623=ORIENTED_EDGE('',*,*,#162,.T.);
#624=EDGE_LOOP('',(#622,#623));
#625=FACE_BOUND('',#624,.T.);
#626=ADVANCED_FACE('',(#617,#621,#625),#611,.T.);
#627=CLOSED_SHELL('',(#166,#208,#264,#331,#355,#415,#448,#470,#502,#520,#538,#560,#577,#594,#606,#626));
#628=MANIFOLD_SOLID_BREP('5A3',#627);
#629=ADVANCED_BREP_SHAPE_REPRESENTATION('ABSR1',(#628),#28);
#630=SHAPE_REPRESENTATION_RELATIONSHIP('SRRPL1',' ',#629,#122);
ENDSEC;
END-ISO-10303-21;
