ISO-10303-21;
HEADER;
/* Generated by software containing ST-Developer
 * from STEP Tools, Inc. (www.steptools.com) 
 */

FILE_DESCRIPTION(
/* description */ (''),
/* implementation_level */ '2;1');

FILE_NAME(
/* name */ 
'X:\\VIRI ZA WEB\\CAD DATOTEKE\\ELEKTRI\X2\010C\X0\NI CILINDRI PNCE\\D
ODATNA OPREMA ELEKTRI\X2\010C\X0\NI CILINDRI\\PRITRDILA\\KSZ\\izvoz\\C
AD_5230.stp',
/* time_stamp */ '2016-06-08T16:34:46+02:00',
/* author */ ('Hypex'),
/* organization */ ('Hypex'),
/* preprocessor_version */ 'ST-DEVELOPER v16.1',
/* originating_system */ 'Autodesk Inventor 2016',
/* authorisation */ '');

FILE_SCHEMA (('AUTOMOTIVE_DESIGN { 1 0 10303 214 3 1 1 }'));
ENDSEC;

DATA;
#10=MECHANICAL_DESIGN_GEOMETRIC_PRESENTATION_REPRESENTATION('',(#326,#329,
#328,#327,#331,#330,#332,#333,#334,#339,#335,#336,#337,#338,#340,#341,#342,
#343,#344,#345,#346,#347),#608);
#11=SHAPE_REPRESENTATION_RELATIONSHIP('SRR','None',#617,#12);
#12=ADVANCED_BREP_SHAPE_REPRESENTATION('',(#13),#607);
#13=MANIFOLD_SOLID_BREP('Solid1',#369);
#14=CONICAL_SURFACE('',#398,6.,45.);
#15=CONICAL_SURFACE('',#402,5.3235,44.9999999999999);
#16=CYLINDRICAL_SURFACE('',#380,13.);
#17=CYLINDRICAL_SURFACE('',#394,8.5);
#18=CYLINDRICAL_SURFACE('',#400,5.3235);
#19=CYLINDRICAL_SURFACE('',#407,2.75);
#20=CYLINDRICAL_SURFACE('',#408,2.75);
#21=CYLINDRICAL_SURFACE('',#409,2.75);
#22=CYLINDRICAL_SURFACE('',#410,2.75);
#23=FACE_BOUND('',#87,.T.);
#24=FACE_BOUND('',#89,.T.);
#25=FACE_BOUND('',#91,.T.);
#26=FACE_BOUND('',#93,.T.);
#27=FACE_BOUND('',#94,.T.);
#28=FACE_BOUND('',#95,.T.);
#29=FACE_BOUND('',#96,.T.);
#30=FACE_BOUND('',#97,.T.);
#31=FACE_BOUND('',#99,.T.);
#32=FACE_BOUND('',#100,.T.);
#33=FACE_BOUND('',#101,.T.);
#34=FACE_BOUND('',#102,.T.);
#35=FACE_BOUND('',#103,.T.);
#36=FACE_BOUND('',#106,.T.);
#37=FACE_BOUND('',#109,.T.);
#38=FACE_BOUND('',#111,.T.);
#39=FACE_BOUND('',#113,.T.);
#40=FACE_BOUND('',#119,.T.);
#41=FACE_BOUND('',#121,.T.);
#42=FACE_BOUND('',#123,.T.);
#43=FACE_BOUND('',#125,.T.);
#44=CIRCLE('',#374,8.5);
#45=CIRCLE('',#375,8.5);
#46=CIRCLE('',#376,6.05);
#47=CIRCLE('',#378,13.);
#48=CIRCLE('',#379,5.95);
#49=CIRCLE('',#381,13.);
#50=CIRCLE('',#383,2.75);
#51=CIRCLE('',#384,2.75);
#52=CIRCLE('',#385,2.75);
#53=CIRCLE('',#386,2.75);
#54=CIRCLE('',#388,8.5);
#55=CIRCLE('',#389,2.75);
#56=CIRCLE('',#390,2.75);
#57=CIRCLE('',#391,2.75);
#58=CIRCLE('',#392,2.75);
#59=CIRCLE('',#395,8.5);
#60=CIRCLE('',#396,8.5);
#61=CIRCLE('',#399,5.3235);
#62=CIRCLE('',#401,5.3235);
#63=FACE_OUTER_BOUND('',#84,.T.);
#64=FACE_OUTER_BOUND('',#85,.T.);
#65=FACE_OUTER_BOUND('',#86,.T.);
#66=FACE_OUTER_BOUND('',#88,.T.);
#67=FACE_OUTER_BOUND('',#90,.T.);
#68=FACE_OUTER_BOUND('',#92,.T.);
#69=FACE_OUTER_BOUND('',#98,.T.);
#70=FACE_OUTER_BOUND('',#104,.T.);
#71=FACE_OUTER_BOUND('',#105,.T.);
#72=FACE_OUTER_BOUND('',#107,.T.);
#73=FACE_OUTER_BOUND('',#108,.T.);
#74=FACE_OUTER_BOUND('',#110,.T.);
#75=FACE_OUTER_BOUND('',#112,.T.);
#76=FACE_OUTER_BOUND('',#114,.T.);
#77=FACE_OUTER_BOUND('',#115,.T.);
#78=FACE_OUTER_BOUND('',#116,.T.);
#79=FACE_OUTER_BOUND('',#117,.T.);
#80=FACE_OUTER_BOUND('',#118,.T.);
#81=FACE_OUTER_BOUND('',#120,.T.);
#82=FACE_OUTER_BOUND('',#122,.T.);
#83=FACE_OUTER_BOUND('',#124,.T.);
#84=EDGE_LOOP('',(#236,#237,#238,#239));
#85=EDGE_LOOP('',(#240,#241,#242,#243));
#86=EDGE_LOOP('',(#244,#245,#246,#247));
#87=EDGE_LOOP('',(#248));
#88=EDGE_LOOP('',(#249));
#89=EDGE_LOOP('',(#250));
#90=EDGE_LOOP('',(#251));
#91=EDGE_LOOP('',(#252));
#92=EDGE_LOOP('',(#253,#254,#255,#256));
#93=EDGE_LOOP('',(#257));
#94=EDGE_LOOP('',(#258));
#95=EDGE_LOOP('',(#259));
#96=EDGE_LOOP('',(#260));
#97=EDGE_LOOP('',(#261));
#98=EDGE_LOOP('',(#262,#263,#264,#265));
#99=EDGE_LOOP('',(#266));
#100=EDGE_LOOP('',(#267));
#101=EDGE_LOOP('',(#268));
#102=EDGE_LOOP('',(#269));
#103=EDGE_LOOP('',(#270));
#104=EDGE_LOOP('',(#271,#272,#273,#274));
#105=EDGE_LOOP('',(#275,#276,#277,#278,#279,#280,#281,#282));
#106=EDGE_LOOP('',(#283));
#107=EDGE_LOOP('',(#284,#285));
#108=EDGE_LOOP('',(#286));
#109=EDGE_LOOP('',(#287));
#110=EDGE_LOOP('',(#288));
#111=EDGE_LOOP('',(#289));
#112=EDGE_LOOP('',(#290));
#113=EDGE_LOOP('',(#291));
#114=EDGE_LOOP('',(#292,#293));
#115=EDGE_LOOP('',(#294,#295,#296,#297));
#116=EDGE_LOOP('',(#298,#299,#300,#301));
#117=EDGE_LOOP('',(#302,#303,#304,#305));
#118=EDGE_LOOP('',(#306));
#119=EDGE_LOOP('',(#307));
#120=EDGE_LOOP('',(#308));
#121=EDGE_LOOP('',(#309));
#122=EDGE_LOOP('',(#310));
#123=EDGE_LOOP('',(#311));
#124=EDGE_LOOP('',(#312));
#125=EDGE_LOOP('',(#313));
#126=LINE('',#517,#146);
#127=LINE('',#519,#147);
#128=LINE('',#521,#148);
#129=LINE('',#522,#149);
#130=LINE('',#526,#150);
#131=LINE('',#528,#151);
#132=LINE('',#530,#152);
#133=LINE('',#531,#153);
#134=LINE('',#548,#154);
#135=LINE('',#550,#155);
#136=LINE('',#552,#156);
#137=LINE('',#553,#157);
#138=LINE('',#565,#158);
#139=LINE('',#567,#159);
#140=LINE('',#569,#160);
#141=LINE('',#570,#161);
#142=LINE('',#582,#162);
#143=LINE('',#583,#163);
#144=LINE('',#597,#164);
#145=LINE('',#599,#165);
#146=VECTOR('',#415,8.85);
#147=VECTOR('',#416,8.);
#148=VECTOR('',#417,8.85);
#149=VECTOR('',#418,8.00000000000001);
#150=VECTOR('',#421,8.85);
#151=VECTOR('',#422,8.);
#152=VECTOR('',#423,8.85);
#153=VECTOR('',#424,8.);
#154=VECTOR('',#445,40.);
#155=VECTOR('',#446,50.);
#156=VECTOR('',#447,40.);
#157=VECTOR('',#448,50.);
#158=VECTOR('',#459,40.);
#159=VECTOR('',#460,50.);
#160=VECTOR('',#461,40.);
#161=VECTOR('',#462,50.);
#162=VECTOR('',#475,12.);
#163=VECTOR('',#476,12.);
#164=VECTOR('',#499,12.);
#165=VECTOR('',#502,12.);
#166=VERTEX_POINT('',#515);
#167=VERTEX_POINT('',#516);
#168=VERTEX_POINT('',#518);
#169=VERTEX_POINT('',#520);
#170=VERTEX_POINT('',#524);
#171=VERTEX_POINT('',#525);
#172=VERTEX_POINT('',#527);
#173=VERTEX_POINT('',#529);
#174=VERTEX_POINT('',#535);
#175=VERTEX_POINT('',#538);
#176=VERTEX_POINT('',#540);
#177=VERTEX_POINT('',#543);
#178=VERTEX_POINT('',#546);
#179=VERTEX_POINT('',#547);
#180=VERTEX_POINT('',#549);
#181=VERTEX_POINT('',#551);
#182=VERTEX_POINT('',#554);
#183=VERTEX_POINT('',#556);
#184=VERTEX_POINT('',#558);
#185=VERTEX_POINT('',#560);
#186=VERTEX_POINT('',#563);
#187=VERTEX_POINT('',#564);
#188=VERTEX_POINT('',#566);
#189=VERTEX_POINT('',#568);
#190=VERTEX_POINT('',#571);
#191=VERTEX_POINT('',#573);
#192=VERTEX_POINT('',#575);
#193=VERTEX_POINT('',#577);
#194=VERTEX_POINT('',#579);
#195=VERTEX_POINT('',#589);
#196=VERTEX_POINT('',#592);
#197=EDGE_CURVE('',#166,#167,#126,.T.);
#198=EDGE_CURVE('',#168,#167,#127,.T.);
#199=EDGE_CURVE('',#168,#169,#128,.F.);
#200=EDGE_CURVE('',#166,#169,#129,.T.);
#201=EDGE_CURVE('',#170,#171,#130,.T.);
#202=EDGE_CURVE('',#172,#171,#131,.T.);
#203=EDGE_CURVE('',#173,#172,#132,.T.);
#204=EDGE_CURVE('',#170,#173,#133,.T.);
#205=EDGE_CURVE('',#169,#170,#44,.T.);
#206=EDGE_CURVE('',#173,#166,#45,.T.);
#207=EDGE_CURVE('',#174,#174,#46,.T.);
#208=EDGE_CURVE('',#175,#175,#47,.T.);
#209=EDGE_CURVE('',#176,#176,#48,.T.);
#210=EDGE_CURVE('',#177,#177,#49,.F.);
#211=EDGE_CURVE('',#178,#179,#134,.T.);
#212=EDGE_CURVE('',#180,#178,#135,.T.);
#213=EDGE_CURVE('',#181,#180,#136,.T.);
#214=EDGE_CURVE('',#179,#181,#137,.T.);
#215=EDGE_CURVE('',#182,#182,#50,.T.);
#216=EDGE_CURVE('',#183,#183,#51,.T.);
#217=EDGE_CURVE('',#184,#184,#52,.T.);
#218=EDGE_CURVE('',#185,#185,#53,.T.);
#219=EDGE_CURVE('',#186,#187,#138,.T.);
#220=EDGE_CURVE('',#187,#188,#139,.T.);
#221=EDGE_CURVE('',#188,#189,#140,.T.);
#222=EDGE_CURVE('',#189,#186,#141,.T.);
#223=EDGE_CURVE('',#190,#190,#54,.F.);
#224=EDGE_CURVE('',#191,#191,#55,.T.);
#225=EDGE_CURVE('',#192,#192,#56,.T.);
#226=EDGE_CURVE('',#193,#193,#57,.T.);
#227=EDGE_CURVE('',#194,#194,#58,.T.);
#228=EDGE_CURVE('',#186,#178,#142,.T.);
#229=EDGE_CURVE('',#189,#180,#143,.T.);
#230=EDGE_CURVE('',#167,#168,#59,.T.);
#231=EDGE_CURVE('',#171,#172,#60,.T.);
#232=EDGE_CURVE('',#195,#195,#61,.T.);
#233=EDGE_CURVE('',#196,#196,#62,.T.);
#234=EDGE_CURVE('',#187,#179,#144,.T.);
#235=EDGE_CURVE('',#188,#181,#145,.T.);
#236=ORIENTED_EDGE('',*,*,#197,.T.);
#237=ORIENTED_EDGE('',*,*,#198,.F.);
#238=ORIENTED_EDGE('',*,*,#199,.T.);
#239=ORIENTED_EDGE('',*,*,#200,.F.);
#240=ORIENTED_EDGE('',*,*,#201,.T.);
#241=ORIENTED_EDGE('',*,*,#202,.F.);
#242=ORIENTED_EDGE('',*,*,#203,.F.);
#243=ORIENTED_EDGE('',*,*,#204,.F.);
#244=ORIENTED_EDGE('',*,*,#200,.T.);
#245=ORIENTED_EDGE('',*,*,#205,.T.);
#246=ORIENTED_EDGE('',*,*,#204,.T.);
#247=ORIENTED_EDGE('',*,*,#206,.T.);
#248=ORIENTED_EDGE('',*,*,#207,.F.);
#249=ORIENTED_EDGE('',*,*,#208,.F.);
#250=ORIENTED_EDGE('',*,*,#209,.F.);
#251=ORIENTED_EDGE('',*,*,#208,.T.);
#252=ORIENTED_EDGE('',*,*,#210,.T.);
#253=ORIENTED_EDGE('',*,*,#211,.F.);
#254=ORIENTED_EDGE('',*,*,#212,.F.);
#255=ORIENTED_EDGE('',*,*,#213,.F.);
#256=ORIENTED_EDGE('',*,*,#214,.F.);
#257=ORIENTED_EDGE('',*,*,#210,.F.);
#258=ORIENTED_EDGE('',*,*,#215,.T.);
#259=ORIENTED_EDGE('',*,*,#216,.T.);
#260=ORIENTED_EDGE('',*,*,#217,.T.);
#261=ORIENTED_EDGE('',*,*,#218,.T.);
#262=ORIENTED_EDGE('',*,*,#219,.T.);
#263=ORIENTED_EDGE('',*,*,#220,.T.);
#264=ORIENTED_EDGE('',*,*,#221,.T.);
#265=ORIENTED_EDGE('',*,*,#222,.T.);
#266=ORIENTED_EDGE('',*,*,#223,.T.);
#267=ORIENTED_EDGE('',*,*,#224,.F.);
#268=ORIENTED_EDGE('',*,*,#225,.F.);
#269=ORIENTED_EDGE('',*,*,#226,.F.);
#270=ORIENTED_EDGE('',*,*,#227,.F.);
#271=ORIENTED_EDGE('',*,*,#212,.T.);
#272=ORIENTED_EDGE('',*,*,#228,.F.);
#273=ORIENTED_EDGE('',*,*,#222,.F.);
#274=ORIENTED_EDGE('',*,*,#229,.T.);
#275=ORIENTED_EDGE('',*,*,#199,.F.);
#276=ORIENTED_EDGE('',*,*,#230,.F.);
#277=ORIENTED_EDGE('',*,*,#197,.F.);
#278=ORIENTED_EDGE('',*,*,#206,.F.);
#279=ORIENTED_EDGE('',*,*,#203,.T.);
#280=ORIENTED_EDGE('',*,*,#231,.F.);
#281=ORIENTED_EDGE('',*,*,#201,.F.);
#282=ORIENTED_EDGE('',*,*,#205,.F.);
#283=ORIENTED_EDGE('',*,*,#223,.F.);
#284=ORIENTED_EDGE('',*,*,#231,.T.);
#285=ORIENTED_EDGE('',*,*,#202,.T.);
#286=ORIENTED_EDGE('',*,*,#207,.T.);
#287=ORIENTED_EDGE('',*,*,#232,.T.);
#288=ORIENTED_EDGE('',*,*,#233,.T.);
#289=ORIENTED_EDGE('',*,*,#232,.F.);
#290=ORIENTED_EDGE('',*,*,#209,.T.);
#291=ORIENTED_EDGE('',*,*,#233,.F.);
#292=ORIENTED_EDGE('',*,*,#230,.T.);
#293=ORIENTED_EDGE('',*,*,#198,.T.);
#294=ORIENTED_EDGE('',*,*,#211,.T.);
#295=ORIENTED_EDGE('',*,*,#234,.F.);
#296=ORIENTED_EDGE('',*,*,#219,.F.);
#297=ORIENTED_EDGE('',*,*,#228,.T.);
#298=ORIENTED_EDGE('',*,*,#214,.T.);
#299=ORIENTED_EDGE('',*,*,#235,.F.);
#300=ORIENTED_EDGE('',*,*,#220,.F.);
#301=ORIENTED_EDGE('',*,*,#234,.T.);
#302=ORIENTED_EDGE('',*,*,#213,.T.);
#303=ORIENTED_EDGE('',*,*,#229,.F.);
#304=ORIENTED_EDGE('',*,*,#221,.F.);
#305=ORIENTED_EDGE('',*,*,#235,.T.);
#306=ORIENTED_EDGE('',*,*,#227,.T.);
#307=ORIENTED_EDGE('',*,*,#218,.F.);
#308=ORIENTED_EDGE('',*,*,#226,.T.);
#309=ORIENTED_EDGE('',*,*,#217,.F.);
#310=ORIENTED_EDGE('',*,*,#225,.T.);
#311=ORIENTED_EDGE('',*,*,#216,.F.);
#312=ORIENTED_EDGE('',*,*,#224,.T.);
#313=ORIENTED_EDGE('',*,*,#215,.F.);
#314=PLANE('',#371);
#315=PLANE('',#372);
#316=PLANE('',#373);
#317=PLANE('',#377);
#318=PLANE('',#382);
#319=PLANE('',#387);
#320=PLANE('',#393);
#321=PLANE('',#397);
#322=PLANE('',#403);
#323=PLANE('',#404);
#324=PLANE('',#405);
#325=PLANE('',#406);
#326=STYLED_ITEM('',(#626),#348);
#327=STYLED_ITEM('',(#626),#349);
#328=STYLED_ITEM('',(#626),#350);
#329=STYLED_ITEM('',(#626),#351);
#330=STYLED_ITEM('',(#626),#352);
#331=STYLED_ITEM('',(#626),#353);
#332=STYLED_ITEM('',(#626),#354);
#333=STYLED_ITEM('',(#626),#355);
#334=STYLED_ITEM('',(#626),#356);
#335=STYLED_ITEM('',(#626),#357);
#336=STYLED_ITEM('',(#626),#358);
#337=STYLED_ITEM('',(#626),#359);
#338=STYLED_ITEM('',(#626),#360);
#339=STYLED_ITEM('',(#626),#361);
#340=STYLED_ITEM('',(#626),#362);
#341=STYLED_ITEM('',(#626),#363);
#342=STYLED_ITEM('',(#626),#364);
#343=STYLED_ITEM('',(#626),#365);
#344=STYLED_ITEM('',(#626),#366);
#345=STYLED_ITEM('',(#626),#367);
#346=STYLED_ITEM('',(#626),#368);
#347=STYLED_ITEM('',(#626),#13);
#348=ADVANCED_FACE('',(#63),#314,.T.);
#349=ADVANCED_FACE('',(#64),#315,.T.);
#350=ADVANCED_FACE('',(#65,#23),#316,.T.);
#351=ADVANCED_FACE('',(#66,#24),#317,.F.);
#352=ADVANCED_FACE('',(#67,#25),#16,.T.);
#353=ADVANCED_FACE('',(#68,#26,#27,#28,#29,#30),#318,.F.);
#354=ADVANCED_FACE('',(#69,#31,#32,#33,#34,#35),#319,.T.);
#355=ADVANCED_FACE('',(#70),#320,.F.);
#356=ADVANCED_FACE('',(#71,#36),#17,.T.);
#357=ADVANCED_FACE('',(#72),#321,.T.);
#358=ADVANCED_FACE('',(#73,#37),#14,.F.);
#359=ADVANCED_FACE('',(#74,#38),#18,.F.);
#360=ADVANCED_FACE('',(#75,#39),#15,.F.);
#361=ADVANCED_FACE('',(#76),#322,.T.);
#362=ADVANCED_FACE('',(#77),#323,.F.);
#363=ADVANCED_FACE('',(#78),#324,.F.);
#364=ADVANCED_FACE('',(#79),#325,.F.);
#365=ADVANCED_FACE('',(#80,#40),#19,.F.);
#366=ADVANCED_FACE('',(#81,#41),#20,.F.);
#367=ADVANCED_FACE('',(#82,#42),#21,.F.);
#368=ADVANCED_FACE('',(#83,#43),#22,.F.);
#369=CLOSED_SHELL('',(#348,#349,#350,#351,#352,#353,#354,#355,#356,#357,
#358,#359,#360,#361,#362,#363,#364,#365,#366,#367,#368));
#370=AXIS2_PLACEMENT_3D('placement',#513,#411,#412);
#371=AXIS2_PLACEMENT_3D('',#514,#413,#414);
#372=AXIS2_PLACEMENT_3D('',#523,#419,#420);
#373=AXIS2_PLACEMENT_3D('',#532,#425,#426);
#374=AXIS2_PLACEMENT_3D('',#533,#427,#428);
#375=AXIS2_PLACEMENT_3D('',#534,#429,#430);
#376=AXIS2_PLACEMENT_3D('',#536,#431,#432);
#377=AXIS2_PLACEMENT_3D('',#537,#433,#434);
#378=AXIS2_PLACEMENT_3D('',#539,#435,#436);
#379=AXIS2_PLACEMENT_3D('',#541,#437,#438);
#380=AXIS2_PLACEMENT_3D('',#542,#439,#440);
#381=AXIS2_PLACEMENT_3D('',#544,#441,#442);
#382=AXIS2_PLACEMENT_3D('',#545,#443,#444);
#383=AXIS2_PLACEMENT_3D('',#555,#449,#450);
#384=AXIS2_PLACEMENT_3D('',#557,#451,#452);
#385=AXIS2_PLACEMENT_3D('',#559,#453,#454);
#386=AXIS2_PLACEMENT_3D('',#561,#455,#456);
#387=AXIS2_PLACEMENT_3D('',#562,#457,#458);
#388=AXIS2_PLACEMENT_3D('',#572,#463,#464);
#389=AXIS2_PLACEMENT_3D('',#574,#465,#466);
#390=AXIS2_PLACEMENT_3D('',#576,#467,#468);
#391=AXIS2_PLACEMENT_3D('',#578,#469,#470);
#392=AXIS2_PLACEMENT_3D('',#580,#471,#472);
#393=AXIS2_PLACEMENT_3D('',#581,#473,#474);
#394=AXIS2_PLACEMENT_3D('',#584,#477,#478);
#395=AXIS2_PLACEMENT_3D('',#585,#479,#480);
#396=AXIS2_PLACEMENT_3D('',#586,#481,#482);
#397=AXIS2_PLACEMENT_3D('',#587,#483,#484);
#398=AXIS2_PLACEMENT_3D('',#588,#485,#486);
#399=AXIS2_PLACEMENT_3D('',#590,#487,#488);
#400=AXIS2_PLACEMENT_3D('',#591,#489,#490);
#401=AXIS2_PLACEMENT_3D('',#593,#491,#492);
#402=AXIS2_PLACEMENT_3D('',#594,#493,#494);
#403=AXIS2_PLACEMENT_3D('',#595,#495,#496);
#404=AXIS2_PLACEMENT_3D('',#596,#497,#498);
#405=AXIS2_PLACEMENT_3D('',#598,#500,#501);
#406=AXIS2_PLACEMENT_3D('',#600,#503,#504);
#407=AXIS2_PLACEMENT_3D('',#601,#505,#506);
#408=AXIS2_PLACEMENT_3D('',#602,#507,#508);
#409=AXIS2_PLACEMENT_3D('',#603,#509,#510);
#410=AXIS2_PLACEMENT_3D('',#604,#511,#512);
#411=DIRECTION('axis',(0.,0.,1.));
#412=DIRECTION('refdir',(1.,0.,0.));
#413=DIRECTION('center_axis',(0.,0.,1.));
#414=DIRECTION('ref_axis',(1.,0.,0.));
#415=DIRECTION('',(0.,-1.,0.));
#416=DIRECTION('',(-1.,0.,0.));
#417=DIRECTION('',(0.,-1.,0.));
#418=DIRECTION('',(1.,0.,0.));
#419=DIRECTION('center_axis',(0.,0.,-1.));
#420=DIRECTION('ref_axis',(-1.,0.,0.));
#421=DIRECTION('',(0.,-1.,0.));
#422=DIRECTION('',(1.,0.,0.));
#423=DIRECTION('',(0.,-1.,0.));
#424=DIRECTION('',(-1.,0.,0.));
#425=DIRECTION('center_axis',(0.,1.,0.));
#426=DIRECTION('ref_axis',(0.,0.,1.));
#427=DIRECTION('center_axis',(0.,1.,0.));
#428=DIRECTION('ref_axis',(1.,0.,0.));
#429=DIRECTION('center_axis',(0.,1.,0.));
#430=DIRECTION('ref_axis',(1.,0.,0.));
#431=DIRECTION('center_axis',(0.,1.,0.));
#432=DIRECTION('ref_axis',(1.,0.,0.));
#433=DIRECTION('center_axis',(0.,1.,0.));
#434=DIRECTION('ref_axis',(0.,0.,1.));
#435=DIRECTION('center_axis',(0.,1.,0.));
#436=DIRECTION('ref_axis',(0.,0.,-1.));
#437=DIRECTION('center_axis',(0.,-1.,0.));
#438=DIRECTION('ref_axis',(0.,0.,-1.));
#439=DIRECTION('center_axis',(0.,1.,0.));
#440=DIRECTION('ref_axis',(0.,0.,-1.));
#441=DIRECTION('center_axis',(0.,1.,0.));
#442=DIRECTION('ref_axis',(0.,0.,1.));
#443=DIRECTION('center_axis',(0.,1.,0.));
#444=DIRECTION('ref_axis',(0.,0.,1.));
#445=DIRECTION('',(0.,0.,1.));
#446=DIRECTION('',(-1.,0.,0.));
#447=DIRECTION('',(0.,0.,-1.));
#448=DIRECTION('',(1.,0.,0.));
#449=DIRECTION('center_axis',(0.,1.,0.));
#450=DIRECTION('ref_axis',(1.,0.,0.));
#451=DIRECTION('center_axis',(0.,1.,0.));
#452=DIRECTION('ref_axis',(1.,0.,0.));
#453=DIRECTION('center_axis',(0.,1.,0.));
#454=DIRECTION('ref_axis',(1.,0.,0.));
#455=DIRECTION('center_axis',(0.,1.,0.));
#456=DIRECTION('ref_axis',(1.,0.,0.));
#457=DIRECTION('center_axis',(0.,1.,0.));
#458=DIRECTION('ref_axis',(0.,0.,1.));
#459=DIRECTION('',(0.,0.,1.));
#460=DIRECTION('',(1.,0.,0.));
#461=DIRECTION('',(0.,0.,-1.));
#462=DIRECTION('',(-1.,0.,0.));
#463=DIRECTION('center_axis',(0.,1.,0.));
#464=DIRECTION('ref_axis',(0.,0.,1.));
#465=DIRECTION('center_axis',(0.,1.,0.));
#466=DIRECTION('ref_axis',(1.,0.,0.));
#467=DIRECTION('center_axis',(0.,1.,0.));
#468=DIRECTION('ref_axis',(1.,0.,0.));
#469=DIRECTION('center_axis',(0.,1.,0.));
#470=DIRECTION('ref_axis',(1.,0.,0.));
#471=DIRECTION('center_axis',(0.,1.,0.));
#472=DIRECTION('ref_axis',(1.,0.,0.));
#473=DIRECTION('center_axis',(0.,0.,1.));
#474=DIRECTION('ref_axis',(1.,0.,0.));
#475=DIRECTION('',(0.,-1.,0.));
#476=DIRECTION('',(0.,-1.,0.));
#477=DIRECTION('center_axis',(0.,1.,0.));
#478=DIRECTION('ref_axis',(0.,0.,-1.));
#479=DIRECTION('center_axis',(0.,1.,0.));
#480=DIRECTION('ref_axis',(0.,0.,1.));
#481=DIRECTION('center_axis',(0.,1.,0.));
#482=DIRECTION('ref_axis',(0.,0.,1.));
#483=DIRECTION('center_axis',(0.,1.,0.));
#484=DIRECTION('ref_axis',(0.,0.,1.));
#485=DIRECTION('center_axis',(0.,1.,0.));
#486=DIRECTION('ref_axis',(0.,0.,1.));
#487=DIRECTION('center_axis',(0.,-1.,0.));
#488=DIRECTION('ref_axis',(0.,0.,-1.));
#489=DIRECTION('center_axis',(0.,1.,0.));
#490=DIRECTION('ref_axis',(0.,0.,-1.));
#491=DIRECTION('center_axis',(0.,-1.,0.));
#492=DIRECTION('ref_axis',(0.,0.,-1.));
#493=DIRECTION('center_axis',(0.,-1.,0.));
#494=DIRECTION('ref_axis',(0.,0.,-1.));
#495=DIRECTION('center_axis',(0.,1.,0.));
#496=DIRECTION('ref_axis',(0.,0.,1.));
#497=DIRECTION('center_axis',(1.,0.,0.));
#498=DIRECTION('ref_axis',(0.,0.,-1.));
#499=DIRECTION('',(0.,-1.,0.));
#500=DIRECTION('center_axis',(0.,0.,-1.));
#501=DIRECTION('ref_axis',(-1.,0.,0.));
#502=DIRECTION('',(0.,-1.,0.));
#503=DIRECTION('center_axis',(-1.,0.,0.));
#504=DIRECTION('ref_axis',(0.,0.,1.));
#505=DIRECTION('center_axis',(0.,1.,0.));
#506=DIRECTION('ref_axis',(0.,0.,-1.));
#507=DIRECTION('center_axis',(0.,1.,0.));
#508=DIRECTION('ref_axis',(0.,0.,-1.));
#509=DIRECTION('center_axis',(0.,1.,0.));
#510=DIRECTION('ref_axis',(0.,0.,-1.));
#511=DIRECTION('center_axis',(0.,1.,0.));
#512=DIRECTION('ref_axis',(0.,0.,-1.));
#513=CARTESIAN_POINT('',(0.,0.,0.));
#514=CARTESIAN_POINT('Origin',(15.,30.65,7.5));
#515=CARTESIAN_POINT('',(-4.,21.9,7.5));
#516=CARTESIAN_POINT('',(-4.,13.05,7.5));
#517=CARTESIAN_POINT('',(-4.,-0.15,7.5));
#518=CARTESIAN_POINT('',(4.,13.05,7.5));
#519=CARTESIAN_POINT('',(15.,13.05,7.5));
#520=CARTESIAN_POINT('',(4.,21.9,7.5));
#521=CARTESIAN_POINT('',(4.,-0.15,7.5));
#522=CARTESIAN_POINT('',(-5.025,21.9,7.5));
#523=CARTESIAN_POINT('Origin',(-13.5,30.65,-7.5));
#524=CARTESIAN_POINT('',(4.,21.9,-7.5));
#525=CARTESIAN_POINT('',(4.,13.05,-7.5));
#526=CARTESIAN_POINT('',(4.,-0.15,-7.5));
#527=CARTESIAN_POINT('',(-4.,13.05,-7.5));
#528=CARTESIAN_POINT('',(-13.5,13.05,-7.5));
#529=CARTESIAN_POINT('',(-4.,21.9,-7.5));
#530=CARTESIAN_POINT('',(-4.,-0.150000000000001,-7.5));
#531=CARTESIAN_POINT('',(-1.025,21.9,-7.5));
#532=CARTESIAN_POINT('Origin',(-6.05,21.9,0.));
#533=CARTESIAN_POINT('Origin',(0.,21.9,0.));
#534=CARTESIAN_POINT('Origin',(0.,21.9,0.));
#535=CARTESIAN_POINT('',(-6.05,21.9,0.));
#536=CARTESIAN_POINT('Origin',(0.,21.9,0.));
#537=CARTESIAN_POINT('Origin',(-1.3267006990763E-16,-0.1,0.));
#538=CARTESIAN_POINT('',(13.,-0.1,1.59204083889156E-15));
#539=CARTESIAN_POINT('Origin',(0.,-0.1,0.));
#540=CARTESIAN_POINT('',(-7.28664845492675E-16,-0.1,5.95));
#541=CARTESIAN_POINT('Origin',(0.,-0.1,0.));
#542=CARTESIAN_POINT('Origin',(0.,-0.15,0.));
#543=CARTESIAN_POINT('',(0.,0.,13.));
#544=CARTESIAN_POINT('Origin',(0.,0.,0.));
#545=CARTESIAN_POINT('Origin',(0.,0.,0.));
#546=CARTESIAN_POINT('',(-25.,0.,-20.));
#547=CARTESIAN_POINT('',(-25.,0.,20.));
#548=CARTESIAN_POINT('',(-25.,0.,-20.));
#549=CARTESIAN_POINT('',(25.,0.,-20.));
#550=CARTESIAN_POINT('',(25.,0.,-20.));
#551=CARTESIAN_POINT('',(25.,0.,20.));
#552=CARTESIAN_POINT('',(25.,0.,20.));
#553=CARTESIAN_POINT('',(-25.,0.,20.));
#554=CARTESIAN_POINT('',(-17.25,0.,15.));
#555=CARTESIAN_POINT('Origin',(-20.,0.,15.));
#556=CARTESIAN_POINT('',(-17.25,0.,-15.));
#557=CARTESIAN_POINT('Origin',(-20.,0.,-15.));
#558=CARTESIAN_POINT('',(22.75,0.,15.));
#559=CARTESIAN_POINT('Origin',(20.,0.,15.));
#560=CARTESIAN_POINT('',(22.75,0.,-15.));
#561=CARTESIAN_POINT('Origin',(20.,0.,-15.));
#562=CARTESIAN_POINT('Origin',(0.,12.,0.));
#563=CARTESIAN_POINT('',(-25.,12.,-20.));
#564=CARTESIAN_POINT('',(-25.,12.,20.));
#565=CARTESIAN_POINT('',(-25.,12.,-20.));
#566=CARTESIAN_POINT('',(25.,12.,20.));
#567=CARTESIAN_POINT('',(-25.,12.,20.));
#568=CARTESIAN_POINT('',(25.,12.,-20.));
#569=CARTESIAN_POINT('',(25.,12.,20.));
#570=CARTESIAN_POINT('',(25.,12.,-20.));
#571=CARTESIAN_POINT('',(0.,12.,8.5));
#572=CARTESIAN_POINT('Origin',(0.,12.,0.));
#573=CARTESIAN_POINT('',(-17.25,12.,15.));
#574=CARTESIAN_POINT('Origin',(-20.,12.,15.));
#575=CARTESIAN_POINT('',(-17.25,12.,-15.));
#576=CARTESIAN_POINT('Origin',(-20.,12.,-15.));
#577=CARTESIAN_POINT('',(22.75,12.,15.));
#578=CARTESIAN_POINT('Origin',(20.,12.,15.));
#579=CARTESIAN_POINT('',(22.75,12.,-15.));
#580=CARTESIAN_POINT('Origin',(20.,12.,-15.));
#581=CARTESIAN_POINT('Origin',(25.,12.,-20.));
#582=CARTESIAN_POINT('',(-25.,12.,-20.));
#583=CARTESIAN_POINT('',(25.,12.,-20.));
#584=CARTESIAN_POINT('Origin',(0.,-0.15,0.));
#585=CARTESIAN_POINT('Origin',(0.,13.05,0.));
#586=CARTESIAN_POINT('Origin',(0.,13.05,0.));
#587=CARTESIAN_POINT('Origin',(0.,13.05,0.));
#588=CARTESIAN_POINT('Origin',(0.,21.85,0.));
#589=CARTESIAN_POINT('',(0.,21.1735,-5.3235));
#590=CARTESIAN_POINT('Origin',(0.,21.1735,0.));
#591=CARTESIAN_POINT('Origin',(0.,-0.15,0.));
#592=CARTESIAN_POINT('',(0.,0.526500000000003,-5.3235));
#593=CARTESIAN_POINT('Origin',(0.,0.526500000000003,0.));
#594=CARTESIAN_POINT('Origin',(0.,0.526500000000003,0.));
#595=CARTESIAN_POINT('Origin',(0.,13.05,0.));
#596=CARTESIAN_POINT('Origin',(-25.,12.,-20.));
#597=CARTESIAN_POINT('',(-25.,12.,20.));
#598=CARTESIAN_POINT('Origin',(-25.,12.,20.));
#599=CARTESIAN_POINT('',(25.,12.,20.));
#600=CARTESIAN_POINT('Origin',(25.,12.,20.));
#601=CARTESIAN_POINT('Origin',(20.,12.,-15.));
#602=CARTESIAN_POINT('Origin',(20.,12.,15.));
#603=CARTESIAN_POINT('Origin',(-20.,12.,-15.));
#604=CARTESIAN_POINT('Origin',(-20.,12.,15.));
#605=UNCERTAINTY_MEASURE_WITH_UNIT(LENGTH_MEASURE(0.01),#609,
'DISTANCE_ACCURACY_VALUE',
'Maximum model space distance between geometric entities at asserted c
onnectivities');
#606=UNCERTAINTY_MEASURE_WITH_UNIT(LENGTH_MEASURE(1.E-6),#609,
'DISTANCE_ACCURACY_VALUE',
'Maximum model space distance between geometric entities at asserted c
onnectivities');
#607=(
GEOMETRIC_REPRESENTATION_CONTEXT(3)
GLOBAL_UNCERTAINTY_ASSIGNED_CONTEXT((#605))
GLOBAL_UNIT_ASSIGNED_CONTEXT((#609,#612,#610))
REPRESENTATION_CONTEXT('','3D')
);
#608=(
GEOMETRIC_REPRESENTATION_CONTEXT(3)
GLOBAL_UNCERTAINTY_ASSIGNED_CONTEXT((#606))
GLOBAL_UNIT_ASSIGNED_CONTEXT((#609,#612,#610))
REPRESENTATION_CONTEXT('','3D')
);
#609=(
LENGTH_UNIT()
NAMED_UNIT(*)
SI_UNIT(.MILLI.,.METRE.)
);
#610=(
NAMED_UNIT(*)
SI_UNIT($,.STERADIAN.)
SOLID_ANGLE_UNIT()
);
#611=DIMENSIONAL_EXPONENTS(0.,0.,0.,0.,0.,0.,0.);
#612=(
CONVERSION_BASED_UNIT('degree',#614)
NAMED_UNIT(#611)
PLANE_ANGLE_UNIT()
);
#613=(
NAMED_UNIT(*)
PLANE_ANGLE_UNIT()
SI_UNIT($,.RADIAN.)
);
#614=PLANE_ANGLE_MEASURE_WITH_UNIT(PLANE_ANGLE_MEASURE(0.01745329252),#613);
#615=SHAPE_DEFINITION_REPRESENTATION(#616,#617);
#616=PRODUCT_DEFINITION_SHAPE('',$,#619);
#617=SHAPE_REPRESENTATION('',(#370),#607);
#618=PRODUCT_DEFINITION_CONTEXT('part definition',#623,'design');
#619=PRODUCT_DEFINITION('CAD_5230','CAD_5230',#620,#618);
#620=PRODUCT_DEFINITION_FORMATION('',$,#625);
#621=PRODUCT_RELATED_PRODUCT_CATEGORY('CAD_5230','CAD_5230',(#625));
#622=APPLICATION_PROTOCOL_DEFINITION('international standard',
'automotive_design',2009,#623);
#623=APPLICATION_CONTEXT(
'Core Data for Automotive Mechanical Design Process');
#624=PRODUCT_CONTEXT('part definition',#623,'mechanical');
#625=PRODUCT('CAD_5230','CAD_5230',$,(#624));
#626=PRESENTATION_STYLE_ASSIGNMENT((#627));
#627=SURFACE_STYLE_USAGE(.BOTH.,#628);
#628=SURFACE_SIDE_STYLE('',(#629));
#629=SURFACE_STYLE_FILL_AREA(#630);
#630=FILL_AREA_STYLE('',(#631));
#631=FILL_AREA_STYLE_COLOUR('',#632);
#632=COLOUR_RGB('',0.87843137254902,0.874509803921569,0.858823529411765);
ENDSEC;
END-ISO-10303-21;
