ISO-10303-21;
HEADER;
/****************************************************************
 * Generated by software with PDE/Lib inside                    *
 * PDElib Version v51a, created Mon 03/22/2010                  *
 * International Technegroup Inc. (www.iti-oh.com)              *
 ****************************************************************/
FILE_DESCRIPTION((''),'2;1');
FILE_NAME('Q:\\_temp#\\CAD AUSTAUSCH\\Katalogdruck 2010\\SZ1750V-A.stp','2010-08-10T09:58:24',('alexander erhardt'),(''),'Autodesk Inventor 2010','Autodesk Inventor 2010','');
FILE_SCHEMA(('AUTOMOTIVE_DESIGN { 1 0 10303 214 1 1 1 1 }'));
ENDSEC;
DATA;
#5=APPLICATION_CONTEXT('automotive design');
#6=APPLICATION_PROTOCOL_DEFINITION('International Standard','automotive_design',2001,#5);
#7=PRODUCT_CONTEXT('',#5,'mechanical');
#8=PRODUCT('SZ1750V-A','SZ1750V-A',$,(#7));
#9=PRODUCT_RELATED_PRODUCT_CATEGORY('part',$,(#8));
#10=PRODUCT_DEFINITION_FORMATION('',$,#8);
#11=PRODUCT_DEFINITION_CONTEXT('part definition',#5,'design');
#12=PRODUCT_DEFINITION('',$,#10,#11);
#18=(NAMED_UNIT(*)PLANE_ANGLE_UNIT()SI_UNIT($,.RADIAN.));
#19=DIMENSIONAL_EXPONENTS(0.0,0.0,0.0,0.0,0.0,0.0,0.0);
#20=PLANE_ANGLE_MEASURE_WITH_UNIT(PLANE_ANGLE_MEASURE(0.017453292500000),#18);
#24=(CONVERSION_BASED_UNIT('DEGREE',#20)NAMED_UNIT(#19)PLANE_ANGLE_UNIT());
#28=(NAMED_UNIT(*)SI_UNIT($,.STERADIAN.)SOLID_ANGLE_UNIT());
#32=(LENGTH_UNIT()NAMED_UNIT(*)SI_UNIT(.MILLI.,.METRE.));
#34=UNCERTAINTY_MEASURE_WITH_UNIT(LENGTH_MEASURE(0.010000000000000),#32,'DISTANCE_ACCURACY_VALUE','');
#36=(GEOMETRIC_REPRESENTATION_CONTEXT(3)GLOBAL_UNCERTAINTY_ASSIGNED_CONTEXT((#34))GLOBAL_UNIT_ASSIGNED_CONTEXT((#24,#28,#32))REPRESENTATION_CONTEXT('None','None'));
#37=AXIS2_PLACEMENT_3D('',#38,#39,#40);
#38=CARTESIAN_POINT('',(0.0,0.0,0.0));
#39=DIRECTION('',(0.0,0.0,1.0));
#40=DIRECTION('',(1.0,0.0,0.0));
#41=SHAPE_REPRESENTATION('',(#37,#554,#566),#36);
#42=PRODUCT_DEFINITION_SHAPE('','',#12);
#43=SHAPE_DEFINITION_REPRESENTATION(#42,#41);
#44=APPLICATION_CONTEXT('automotive design');
#45=APPLICATION_PROTOCOL_DEFINITION('International Standard','automotive_design',2001,#44);
#46=PRODUCT_CONTEXT('',#44,'mechanical');
#47=PRODUCT('SZ9010N#6#0001#A','SZ9010N#6#0001#A',$,(#46));
#48=PRODUCT_RELATED_PRODUCT_CATEGORY('part',$,(#47));
#49=PRODUCT_DEFINITION_FORMATION('',$,#47);
#50=PRODUCT_DEFINITION_CONTEXT('part definition',#44,'design');
#51=PRODUCT_DEFINITION('',$,#49,#50);
#57=(NAMED_UNIT(*)PLANE_ANGLE_UNIT()SI_UNIT($,.RADIAN.));
#58=DIMENSIONAL_EXPONENTS(0.0,0.0,0.0,0.0,0.0,0.0,0.0);
#59=PLANE_ANGLE_MEASURE_WITH_UNIT(PLANE_ANGLE_MEASURE(0.017453292500000),#57);
#63=(CONVERSION_BASED_UNIT('DEGREE',#59)NAMED_UNIT(#58)PLANE_ANGLE_UNIT());
#67=(NAMED_UNIT(*)SI_UNIT($,.STERADIAN.)SOLID_ANGLE_UNIT());
#71=(LENGTH_UNIT()NAMED_UNIT(*)SI_UNIT(.MILLI.,.METRE.));
#73=UNCERTAINTY_MEASURE_WITH_UNIT(LENGTH_MEASURE(0.010000000000000),#71,'DISTANCE_ACCURACY_VALUE','');
#75=(GEOMETRIC_REPRESENTATION_CONTEXT(3)GLOBAL_UNCERTAINTY_ASSIGNED_CONTEXT((#73))GLOBAL_UNIT_ASSIGNED_CONTEXT((#63,#67,#71))REPRESENTATION_CONTEXT('None','None'));
#76=AXIS2_PLACEMENT_3D('',#77,#78,#79);
#77=CARTESIAN_POINT('',(0.0,0.0,0.0));
#78=DIRECTION('',(0.0,0.0,1.0));
#79=DIRECTION('',(1.0,0.0,0.0));
#80=SHAPE_REPRESENTATION('',(#76),#75);
#81=PRODUCT_DEFINITION_SHAPE('','',#51);
#82=SHAPE_DEFINITION_REPRESENTATION(#81,#80);
#88=(NAMED_UNIT(*)PLANE_ANGLE_UNIT()SI_UNIT($,.RADIAN.));
#89=DIMENSIONAL_EXPONENTS(0.0,0.0,0.0,0.0,0.0,0.0,0.0);
#90=PLANE_ANGLE_MEASURE_WITH_UNIT(PLANE_ANGLE_MEASURE(0.017453292500000),#88);
#94=(CONVERSION_BASED_UNIT('DEGREE',#90)NAMED_UNIT(#89)PLANE_ANGLE_UNIT());
#98=(NAMED_UNIT(*)SI_UNIT($,.STERADIAN.)SOLID_ANGLE_UNIT());
#102=(LENGTH_UNIT()NAMED_UNIT(*)SI_UNIT(.MILLI.,.METRE.));
#104=UNCERTAINTY_MEASURE_WITH_UNIT(LENGTH_MEASURE(0.000001000000000),#102,'DISTANCE_ACCURACY_VALUE','');
#106=(GEOMETRIC_REPRESENTATION_CONTEXT(3)GLOBAL_UNCERTAINTY_ASSIGNED_CONTEXT((#104))GLOBAL_UNIT_ASSIGNED_CONTEXT((#94,#98,#102))REPRESENTATION_CONTEXT('','3D'));
#107=CARTESIAN_POINT('',(0.0,1.751623E-045,51.000000000000021));
#108=DIRECTION('',(0.0,0.0,1.0));
#109=DIRECTION('',(1.0,0.0,0.0));
#110=AXIS2_PLACEMENT_3D('',#107,#108,#109);
#111=PLANE('',#110);
#112=CARTESIAN_POINT('',(-10.0,1.224606E-015,51.000000000000021));
#113=VERTEX_POINT('',#112);
#114=CARTESIAN_POINT('',(0.0,1.751623E-045,51.000000000000021));
#115=DIRECTION('',(0.0,0.0,1.0));
#116=DIRECTION('',(1.0,0.0,0.0));
#117=AXIS2_PLACEMENT_3D('',#114,#115,#116);
#118=CIRCLE('',#117,10.0);
#119=EDGE_CURVE('',#113,#113,#118,.T.);
#120=ORIENTED_EDGE('',*,*,#119,.T.);
#121=EDGE_LOOP('',(#120));
#122=FACE_OUTER_BOUND('',#121,.T.);
#123=CARTESIAN_POINT('',(-3.464101615137751,-6.000000000000004,51.000000000000021));
#124=VERTEX_POINT('',#123);
#125=CARTESIAN_POINT('',(3.464101615137758,-6.0,51.000000000000021));
#126=VERTEX_POINT('',#125);
#127=CARTESIAN_POINT('',(-3.464101615137751,-6.000000000000004,51.0));
#128=DIRECTION('',(1.0,0.0,0.0));
#129=VECTOR('',#128,6.928203230275508);
#130=LINE('',#127,#129);
#131=EDGE_CURVE('',#124,#126,#130,.T.);
#132=ORIENTED_EDGE('',*,*,#131,.F.);
#133=CARTESIAN_POINT('',(-6.928203230275511,-6.206028E-015,51.000000000000021));
#134=VERTEX_POINT('',#133);
#135=CARTESIAN_POINT('',(-6.928203230275511,-6.661338E-015,51.0));
#136=DIRECTION('',(0.500000000000001,-0.866025403784438,0.0));
#137=VECTOR('',#136,6.928203230275510);
#138=LINE('',#135,#137);
#139=EDGE_CURVE('',#134,#124,#138,.T.);
#140=ORIENTED_EDGE('',*,*,#139,.F.);
#141=CARTESIAN_POINT('',(-3.464101615137762,5.999999999999998,51.000000000000021));
#142=VERTEX_POINT('',#141);
#143=CARTESIAN_POINT('',(-3.464101615137762,5.999999999999998,51.0));
#144=DIRECTION('',(-0.499999999999999,-0.866025403784439,0.0));
#145=VECTOR('',#144,6.928203230275511);
#146=LINE('',#143,#145);
#147=EDGE_CURVE('',#142,#134,#146,.T.);
#148=ORIENTED_EDGE('',*,*,#147,.F.);
#149=CARTESIAN_POINT('',(3.464101615137749,6.000000000000005,51.000000000000021));
#150=VERTEX_POINT('',#149);
#151=CARTESIAN_POINT('',(3.464101615137749,6.000000000000005,51.0));
#152=DIRECTION('',(-1.0,0.0,0.0));
#153=VECTOR('',#152,6.928203230275511);
#154=LINE('',#151,#153);
#155=EDGE_CURVE('',#150,#142,#154,.T.);
#156=ORIENTED_EDGE('',*,*,#155,.F.);
#157=CARTESIAN_POINT('',(6.928203230275511,1.487580E-015,51.000000000000021));
#158=VERTEX_POINT('',#157);
#159=CARTESIAN_POINT('',(6.928203230275511,1.393241E-015,51.0));
#160=DIRECTION('',(-0.500000000000001,0.866025403784438,0.0));
#161=VECTOR('',#160,6.928203230275515);
#162=LINE('',#159,#161);
#163=EDGE_CURVE('',#158,#150,#162,.T.);
#164=ORIENTED_EDGE('',*,*,#163,.F.);
#165=CARTESIAN_POINT('',(3.464101615137758,-6.0,51.0));
#166=DIRECTION('',(0.500000000000000,0.866025403784439,0.0));
#167=VECTOR('',#166,6.928203230275511);
#168=LINE('',#165,#167);
#169=EDGE_CURVE('',#126,#158,#168,.T.);
#170=ORIENTED_EDGE('',*,*,#169,.F.);
#171=EDGE_LOOP('',(#132,#140,#148,#156,#164,#170));
#172=FACE_BOUND('',#171,.T.);
#173=ADVANCED_FACE('',(#122,#172),#111,.T.);
#174=CARTESIAN_POINT('',(0.0,1.751623E-045,51.000000000000021));
#175=DIRECTION('',(0.0,-9.860761E-031,-1.0));
#176=DIRECTION('',(1.0,0.0,0.0));
#177=AXIS2_PLACEMENT_3D('',#174,#175,#176);
#178=CYLINDRICAL_SURFACE('',#177,10.0);
#179=CARTESIAN_POINT('',(-10.0,1.224606E-015,50.000000000000028));
#180=VERTEX_POINT('',#179);
#181=CARTESIAN_POINT('',(0.0,-9.860761E-031,50.000000000000028));
#182=DIRECTION('',(0.0,0.0,1.0));
#183=DIRECTION('',(1.0,0.0,0.0));
#184=AXIS2_PLACEMENT_3D('',#181,#182,#183);
#185=CIRCLE('',#184,10.0);
#186=EDGE_CURVE('',#180,#180,#185,.T.);
#187=ORIENTED_EDGE('',*,*,#186,.T.);
#188=EDGE_LOOP('',(#187));
#189=FACE_OUTER_BOUND('',#188,.T.);
#190=ORIENTED_EDGE('',*,*,#119,.F.);
#191=EDGE_LOOP('',(#190));
#192=FACE_BOUND('',#191,.T.);
#193=ADVANCED_FACE('',(#189,#192),#178,.T.);
#194=CARTESIAN_POINT('',(0.0,-9.860761E-031,50.000000000000028));
#195=DIRECTION('',(0.0,0.0,1.0));
#196=DIRECTION('',(1.0,0.0,0.0));
#197=AXIS2_PLACEMENT_3D('',#194,#195,#196);
#198=PLANE('',#197);
#199=ORIENTED_EDGE('',*,*,#186,.F.);
#200=EDGE_LOOP('',(#199));
#201=FACE_OUTER_BOUND('',#200,.T.);
#202=CARTESIAN_POINT('',(-4.0,4.898425E-016,50.000000000000028));
#203=VERTEX_POINT('',#202);
#204=CARTESIAN_POINT('',(0.0,0.0,50.000000000000028));
#205=DIRECTION('',(0.0,0.0,-1.0));
#206=DIRECTION('',(0.0,-1.0,0.0));
#207=AXIS2_PLACEMENT_3D('',#204,#205,#206);
#208=CIRCLE('',#207,4.0);
#209=EDGE_CURVE('',#203,#203,#208,.T.);
#210=ORIENTED_EDGE('',*,*,#209,.F.);
#211=EDGE_LOOP('',(#210));
#212=FACE_BOUND('',#211,.T.);
#213=ADVANCED_FACE('',(#201,#212),#198,.F.);
#214=CARTESIAN_POINT('',(-9.714451E-016,4.857226E-016,57.000000000000014));
#215=DIRECTION('',(0.0,0.0,1.0));
#216=DIRECTION('',(1.0,0.0,0.0));
#217=AXIS2_PLACEMENT_3D('',#214,#215,#216);
#218=PLANE('',#217);
#219=CARTESIAN_POINT('',(-6.928203230275511,-6.206028E-015,57.0));
#220=VERTEX_POINT('',#219);
#221=CARTESIAN_POINT('',(-3.464101615137751,-6.000000000000004,57.0));
#222=VERTEX_POINT('',#221);
#223=CARTESIAN_POINT('',(-6.928203230275511,-6.661338E-015,57.0));
#224=DIRECTION('',(0.500000000000001,-0.866025403784438,0.0));
#225=VECTOR('',#224,6.928203230275510);
#226=LINE('',#223,#225);
#227=EDGE_CURVE('',#220,#222,#226,.T.);
#228=ORIENTED_EDGE('',*,*,#227,.T.);
#229=CARTESIAN_POINT('',(3.464101615137758,-6.0,57.0));
#230=VERTEX_POINT('',#229);
#231=CARTESIAN_POINT('',(-3.464101615137751,-6.000000000000004,57.0));
#232=DIRECTION('',(1.0,0.0,0.0));
#233=VECTOR('',#232,6.928203230275508);
#234=LINE('',#231,#233);
#235=EDGE_CURVE('',#222,#230,#234,.T.);
#236=ORIENTED_EDGE('',*,*,#235,.T.);
#237=CARTESIAN_POINT('',(6.928203230275511,1.487580E-015,57.0));
#238=VERTEX_POINT('',#237);
#239=CARTESIAN_POINT('',(3.464101615137758,-6.0,57.0));
#240=DIRECTION('',(0.500000000000000,0.866025403784439,0.0));
#241=VECTOR('',#240,6.928203230275511);
#242=LINE('',#239,#241);
#243=EDGE_CURVE('',#230,#238,#242,.T.);
#244=ORIENTED_EDGE('',*,*,#243,.T.);
#245=CARTESIAN_POINT('',(3.464101615137749,6.000000000000005,57.0));
#246=VERTEX_POINT('',#245);
#247=CARTESIAN_POINT('',(6.928203230275511,1.393241E-015,57.0));
#248=DIRECTION('',(-0.500000000000001,0.866025403784438,0.0));
#249=VECTOR('',#248,6.928203230275515);
#250=LINE('',#247,#249);
#251=EDGE_CURVE('',#238,#246,#250,.T.);
#252=ORIENTED_EDGE('',*,*,#251,.T.);
#253=CARTESIAN_POINT('',(-3.464101615137762,5.999999999999998,57.0));
#254=VERTEX_POINT('',#253);
#255=CARTESIAN_POINT('',(3.464101615137749,6.000000000000005,57.0));
#256=DIRECTION('',(-1.0,0.0,0.0));
#257=VECTOR('',#256,6.928203230275511);
#258=LINE('',#255,#257);
#259=EDGE_CURVE('',#246,#254,#258,.T.);
#260=ORIENTED_EDGE('',*,*,#259,.T.);
#261=CARTESIAN_POINT('',(-3.464101615137762,5.999999999999998,57.0));
#262=DIRECTION('',(-0.499999999999999,-0.866025403784439,0.0));
#263=VECTOR('',#262,6.928203230275511);
#264=LINE('',#261,#263);
#265=EDGE_CURVE('',#254,#220,#264,.T.);
#266=ORIENTED_EDGE('',*,*,#265,.T.);
#267=EDGE_LOOP('',(#228,#236,#244,#252,#260,#266));
#268=FACE_OUTER_BOUND('',#267,.T.);
#269=CARTESIAN_POINT('',(-4.898425E-016,4.0,57.000000000000014));
#270=VERTEX_POINT('',#269);
#271=CARTESIAN_POINT('',(0.0,0.0,57.000000000000014));
#272=DIRECTION('',(0.0,0.0,1.0));
#273=DIRECTION('',(0.0,-1.0,0.0));
#274=AXIS2_PLACEMENT_3D('',#271,#272,#273);
#275=CIRCLE('',#274,4.0);
#276=EDGE_CURVE('',#270,#270,#275,.T.);
#277=ORIENTED_EDGE('',*,*,#276,.F.);
#278=EDGE_LOOP('',(#277));
#279=FACE_BOUND('',#278,.T.);
#280=ADVANCED_FACE('',(#268,#279),#218,.T.);
#281=CARTESIAN_POINT('',(-3.464101615137751,-6.000000000000004,57.0));
#282=DIRECTION('',(0.0,-1.0,0.0));
#283=DIRECTION('',(0.0,0.0,-1.0));
#284=AXIS2_PLACEMENT_3D('',#281,#282,#283);
#285=PLANE('',#284);
#286=ORIENTED_EDGE('',*,*,#131,.T.);
#287=CARTESIAN_POINT('',(3.464101615137758,-6.0,57.0));
#288=DIRECTION('',(0.0,0.0,-1.0));
#289=VECTOR('',#288,5.999999999999979);
#290=LINE('',#287,#289);
#291=EDGE_CURVE('',#230,#126,#290,.T.);
#292=ORIENTED_EDGE('',*,*,#291,.F.);
#293=ORIENTED_EDGE('',*,*,#235,.F.);
#294=CARTESIAN_POINT('',(-3.464101615137751,-6.000000000000004,57.0));
#295=DIRECTION('',(0.0,0.0,-1.0));
#296=VECTOR('',#295,5.999999999999979);
#297=LINE('',#294,#296);
#298=EDGE_CURVE('',#222,#124,#297,.T.);
#299=ORIENTED_EDGE('',*,*,#298,.T.);
#300=EDGE_LOOP('',(#286,#292,#293,#299));
#301=FACE_OUTER_BOUND('',#300,.T.);
#302=ADVANCED_FACE('',(#301),#285,.T.);
#303=CARTESIAN_POINT('',(3.464101615137758,-6.0,57.0));
#304=DIRECTION('',(0.866025403784439,-0.500000000000000,0.0));
#305=DIRECTION('',(0.0,0.0,-1.0));
#306=AXIS2_PLACEMENT_3D('',#303,#304,#305);
#307=PLANE('',#306);
#308=ORIENTED_EDGE('',*,*,#169,.T.);
#309=CARTESIAN_POINT('',(6.928203230275511,1.487580E-015,57.0));
#310=DIRECTION('',(0.0,0.0,-1.0));
#311=VECTOR('',#310,5.999999999999979);
#312=LINE('',#309,#311);
#313=EDGE_CURVE('',#238,#158,#312,.T.);
#314=ORIENTED_EDGE('',*,*,#313,.F.);
#315=ORIENTED_EDGE('',*,*,#243,.F.);
#316=ORIENTED_EDGE('',*,*,#291,.T.);
#317=EDGE_LOOP('',(#308,#314,#315,#316));
#318=FACE_OUTER_BOUND('',#317,.T.);
#319=ADVANCED_FACE('',(#318),#307,.T.);
#320=CARTESIAN_POINT('',(6.928203230275511,1.487580E-015,57.0));
#321=DIRECTION('',(0.866025403784438,0.500000000000001,0.0));
#322=DIRECTION('',(0.0,0.0,-1.0));
#323=AXIS2_PLACEMENT_3D('',#320,#321,#322);
#324=PLANE('',#323);
#325=ORIENTED_EDGE('',*,*,#163,.T.);
#326=CARTESIAN_POINT('',(3.464101615137749,6.000000000000005,57.0));
#327=DIRECTION('',(0.0,0.0,-1.0));
#328=VECTOR('',#327,5.999999999999979);
#329=LINE('',#326,#328);
#330=EDGE_CURVE('',#246,#150,#329,.T.);
#331=ORIENTED_EDGE('',*,*,#330,.F.);
#332=ORIENTED_EDGE('',*,*,#251,.F.);
#333=ORIENTED_EDGE('',*,*,#313,.T.);
#334=EDGE_LOOP('',(#325,#331,#332,#333));
#335=FACE_OUTER_BOUND('',#334,.T.);
#336=ADVANCED_FACE('',(#335),#324,.T.);
#337=CARTESIAN_POINT('',(3.464101615137749,6.000000000000005,57.0));
#338=DIRECTION('',(0.0,1.0,0.0));
#339=DIRECTION('',(0.0,0.0,1.0));
#340=AXIS2_PLACEMENT_3D('',#337,#338,#339);
#341=PLANE('',#340);
#342=ORIENTED_EDGE('',*,*,#155,.T.);
#343=CARTESIAN_POINT('',(-3.464101615137762,5.999999999999998,57.0));
#344=DIRECTION('',(0.0,0.0,-1.0));
#345=VECTOR('',#344,5.999999999999979);
#346=LINE('',#343,#345);
#347=EDGE_CURVE('',#254,#142,#346,.T.);
#348=ORIENTED_EDGE('',*,*,#347,.F.);
#349=ORIENTED_EDGE('',*,*,#259,.F.);
#350=ORIENTED_EDGE('',*,*,#330,.T.);
#351=EDGE_LOOP('',(#342,#348,#349,#350));
#352=FACE_OUTER_BOUND('',#351,.T.);
#353=ADVANCED_FACE('',(#352),#341,.T.);
#354=CARTESIAN_POINT('',(-3.464101615137762,5.999999999999998,57.0));
#355=DIRECTION('',(-0.866025403784439,0.499999999999999,0.0));
#356=DIRECTION('',(0.0,0.0,1.0));
#357=AXIS2_PLACEMENT_3D('',#354,#355,#356);
#358=PLANE('',#357);
#359=ORIENTED_EDGE('',*,*,#147,.T.);
#360=CARTESIAN_POINT('',(-6.928203230275511,-6.206028E-015,57.0));
#361=DIRECTION('',(0.0,0.0,-1.0));
#362=VECTOR('',#361,5.999999999999979);
#363=LINE('',#360,#362);
#364=EDGE_CURVE('',#220,#134,#363,.T.);
#365=ORIENTED_EDGE('',*,*,#364,.F.);
#366=ORIENTED_EDGE('',*,*,#265,.F.);
#367=ORIENTED_EDGE('',*,*,#347,.T.);
#368=EDGE_LOOP('',(#359,#365,#366,#367));
#369=FACE_OUTER_BOUND('',#368,.T.);
#370=ADVANCED_FACE('',(#369),#358,.T.);
#371=CARTESIAN_POINT('',(-6.928203230275511,-6.206028E-015,57.0));
#372=DIRECTION('',(-0.866025403784438,-0.500000000000001,0.0));
#373=DIRECTION('',(0.0,0.0,1.0));
#374=AXIS2_PLACEMENT_3D('',#371,#372,#373);
#375=PLANE('',#374);
#376=ORIENTED_EDGE('',*,*,#139,.T.);
#377=ORIENTED_EDGE('',*,*,#298,.F.);
#378=ORIENTED_EDGE('',*,*,#227,.F.);
#379=ORIENTED_EDGE('',*,*,#364,.T.);
#380=EDGE_LOOP('',(#376,#377,#378,#379));
#381=FACE_OUTER_BOUND('',#380,.T.);
#382=ADVANCED_FACE('',(#381),#375,.T.);
#383=CARTESIAN_POINT('',(0.0,0.0,52.500000000000000));
#384=DIRECTION('',(0.0,0.0,1.0));
#385=DIRECTION('',(0.0,-1.0,0.0));
#386=AXIS2_PLACEMENT_3D('',#383,#384,#385);
#387=CYLINDRICAL_SURFACE('',#386,4.0);
#388=CARTESIAN_POINT('',(4.898425E-016,-4.0,59.0));
#389=VERTEX_POINT('',#388);
#390=CARTESIAN_POINT('',(0.0,0.0,59.0));
#391=DIRECTION('',(0.0,0.0,1.0));
#392=DIRECTION('',(0.0,1.0,0.0));
#393=AXIS2_PLACEMENT_3D('',#390,#391,#392);
#394=CIRCLE('',#393,4.0);
#395=EDGE_CURVE('',#389,#389,#394,.T.);
#396=ORIENTED_EDGE('',*,*,#395,.F.);
#397=EDGE_LOOP('',(#396));
#398=FACE_OUTER_BOUND('',#397,.T.);
#399=ORIENTED_EDGE('',*,*,#276,.T.);
#400=EDGE_LOOP('',(#399));
#401=FACE_BOUND('',#400,.T.);
#402=ADVANCED_FACE('',(#398,#401),#387,.T.);
#403=CARTESIAN_POINT('',(0.0,0.0,59.500000000000000));
#404=DIRECTION('',(0.0,0.0,-1.0));
#405=DIRECTION('',(0.0,1.0,0.0));
#406=AXIS2_PLACEMENT_3D('',#403,#404,#405);
#407=CONICAL_SURFACE('',#406,3.500000000000003,44.999999999999964);
#408=ORIENTED_EDGE('',*,*,#395,.T.);
#409=EDGE_LOOP('',(#408));
#410=FACE_OUTER_BOUND('',#409,.T.);
#411=CARTESIAN_POINT('',(-3.673819E-016,-3.000000000000005,60.0));
#412=VERTEX_POINT('',#411);
#413=CARTESIAN_POINT('',(0.0,0.0,60.0));
#414=DIRECTION('',(0.0,0.0,-1.0));
#415=DIRECTION('',(0.0,1.0,0.0));
#416=AXIS2_PLACEMENT_3D('',#413,#414,#415);
#417=CIRCLE('',#416,3.000000000000005);
#418=EDGE_CURVE('',#412,#412,#417,.T.);
#419=ORIENTED_EDGE('',*,*,#418,.T.);
#420=EDGE_LOOP('',(#419));
#421=FACE_BOUND('',#420,.T.);
#422=ADVANCED_FACE('',(#410,#421),#407,.T.);
#423=CARTESIAN_POINT('',(0.0,0.0,52.500000000000000));
#424=DIRECTION('',(0.0,0.0,1.0));
#425=DIRECTION('',(0.0,-1.0,0.0));
#426=AXIS2_PLACEMENT_3D('',#423,#424,#425);
#427=CYLINDRICAL_SURFACE('',#426,4.0);
#428=ORIENTED_EDGE('',*,*,#209,.T.);
#429=EDGE_LOOP('',(#428));
#430=FACE_OUTER_BOUND('',#429,.T.);
#431=CARTESIAN_POINT('',(0.0,-3.999999999999995,45.0));
#432=VERTEX_POINT('',#431);
#433=CARTESIAN_POINT('',(0.0,0.0,45.0));
#434=DIRECTION('',(0.0,0.0,1.0));
#435=DIRECTION('',(0.0,-1.0,0.0));
#436=AXIS2_PLACEMENT_3D('',#433,#434,#435);
#437=CIRCLE('',#436,3.999999999999995);
#438=EDGE_CURVE('',#432,#432,#437,.T.);
#439=ORIENTED_EDGE('',*,*,#438,.T.);
#440=EDGE_LOOP('',(#439));
#441=FACE_BOUND('',#440,.T.);
#442=ADVANCED_FACE('',(#430,#441),#427,.T.);
#443=CARTESIAN_POINT('',(0.0,-2.000000000000002,60.0));
#444=DIRECTION('',(0.0,0.0,1.0));
#445=DIRECTION('',(1.0,0.0,0.0));
#446=AXIS2_PLACEMENT_3D('',#443,#444,#445);
#447=PLANE('',#446);
#448=ORIENTED_EDGE('',*,*,#418,.F.);
#449=EDGE_LOOP('',(#448));
#450=FACE_OUTER_BOUND('',#449,.T.);
#451=ADVANCED_FACE('',(#450),#447,.T.);
#452=CARTESIAN_POINT('',(0.0,-3.250000000000000,-50.0));
#453=DIRECTION('',(0.0,0.0,-1.0));
#454=DIRECTION('',(-1.0,0.0,0.0));
#455=AXIS2_PLACEMENT_3D('',#452,#453,#454);
#456=PLANE('',#455);
#457=CARTESIAN_POINT('',(0.0,-6.500000000000000,-50.0));
#458=VERTEX_POINT('',#457);
#459=CARTESIAN_POINT('',(0.0,0.0,-50.0));
#460=DIRECTION('',(0.0,0.0,1.0));
#461=DIRECTION('',(0.0,-1.0,0.0));
#462=AXIS2_PLACEMENT_3D('',#459,#460,#461);
#463=CIRCLE('',#462,6.500000000000000);
#464=EDGE_CURVE('',#458,#458,#463,.T.);
#465=ORIENTED_EDGE('',*,*,#464,.F.);
#466=EDGE_LOOP('',(#465));
#467=FACE_OUTER_BOUND('',#466,.T.);
#468=ADVANCED_FACE('',(#467),#456,.T.);
#469=CARTESIAN_POINT('',(0.0,0.0,-45.0));
#470=DIRECTION('',(0.0,0.0,-1.0));
#471=DIRECTION('',(0.0,-1.0,0.0));
#472=AXIS2_PLACEMENT_3D('',#469,#470,#471);
#473=CONICAL_SURFACE('',#472,5.578943601297475,10.437517102400877);
#474=CARTESIAN_POINT('',(0.0,-4.657887202594948,-40.0));
#475=VERTEX_POINT('',#474);
#476=CARTESIAN_POINT('',(0.0,0.0,-40.0));
#477=DIRECTION('',(0.0,0.0,1.0));
#478=DIRECTION('',(0.0,-1.0,0.0));
#479=AXIS2_PLACEMENT_3D('',#476,#477,#478);
#480=CIRCLE('',#479,4.657887202594948);
#481=EDGE_CURVE('',#475,#475,#480,.T.);
#482=ORIENTED_EDGE('',*,*,#481,.F.);
#483=EDGE_LOOP('',(#482));
#484=FACE_OUTER_BOUND('',#483,.T.);
#485=ORIENTED_EDGE('',*,*,#464,.T.);
#486=EDGE_LOOP('',(#485));
#487=FACE_BOUND('',#486,.T.);
#488=ADVANCED_FACE('',(#484,#487),#473,.T.);
#489=CARTESIAN_POINT('',(0.0,0.0,-35.425269933775745));
#490=DIRECTION('',(0.0,0.0,1.0));
#491=DIRECTION('',(0.0,-1.0,0.0));
#492=AXIS2_PLACEMENT_3D('',#489,#490,#491);
#493=CONICAL_SURFACE('',#492,5.078943601297472,5.258665713603771);
#494=CARTESIAN_POINT('',(0.0,-5.499999999999996,-30.850539867551504));
#495=VERTEX_POINT('',#494);
#496=CARTESIAN_POINT('',(0.0,0.0,-30.850539867551507));
#497=DIRECTION('',(0.0,0.0,1.0));
#498=DIRECTION('',(0.0,-1.0,0.0));
#499=AXIS2_PLACEMENT_3D('',#496,#497,#498);
#500=CIRCLE('',#499,5.499999999999996);
#501=EDGE_CURVE('',#495,#495,#500,.T.);
#502=ORIENTED_EDGE('',*,*,#501,.F.);
#503=EDGE_LOOP('',(#502));
#504=FACE_OUTER_BOUND('',#503,.T.);
#505=ORIENTED_EDGE('',*,*,#481,.T.);
#506=EDGE_LOOP('',(#505));
#507=FACE_BOUND('',#506,.T.);
#508=ADVANCED_FACE('',(#504,#507),#493,.T.);
#509=CARTESIAN_POINT('',(0.0,0.0,22.500000000000000));
#510=DIRECTION('',(0.0,0.0,1.0));
#511=DIRECTION('',(0.0,-1.0,0.0));
#512=AXIS2_PLACEMENT_3D('',#509,#510,#511);
#513=CYLINDRICAL_SURFACE('',#512,5.500000000000005);
#514=ORIENTED_EDGE('',*,*,#501,.T.);
#515=EDGE_LOOP('',(#514));
#516=FACE_OUTER_BOUND('',#515,.T.);
#517=CARTESIAN_POINT('',(0.0,-5.500000000000012,45.0));
#518=VERTEX_POINT('',#517);
#519=CARTESIAN_POINT('',(0.0,0.0,45.0));
#520=DIRECTION('',(0.0,0.0,1.0));
#521=DIRECTION('',(0.0,-1.0,0.0));
#522=AXIS2_PLACEMENT_3D('',#519,#520,#521);
#523=CIRCLE('',#522,5.500000000000012);
#524=EDGE_CURVE('',#518,#518,#523,.T.);
#525=ORIENTED_EDGE('',*,*,#524,.F.);
#526=EDGE_LOOP('',(#525));
#527=FACE_BOUND('',#526,.T.);
#528=ADVANCED_FACE('',(#516,#527),#513,.T.);
#529=CARTESIAN_POINT('',(0.0,-4.750000000000004,45.0));
#530=DIRECTION('',(0.0,0.0,1.0));
#531=DIRECTION('',(1.0,0.0,0.0));
#532=AXIS2_PLACEMENT_3D('',#529,#530,#531);
#533=PLANE('',#532);
#534=ORIENTED_EDGE('',*,*,#524,.T.);
#535=EDGE_LOOP('',(#534));
#536=FACE_OUTER_BOUND('',#535,.T.);
#537=ORIENTED_EDGE('',*,*,#438,.F.);
#538=EDGE_LOOP('',(#537));
#539=FACE_BOUND('',#538,.T.);
#540=ADVANCED_FACE('',(#536,#539),#533,.T.);
#541=CLOSED_SHELL('',(#173,#193,#213,#280,#302,#319,#336,#353,#370,#382,#402,#422,#442,#451,#468,#488,#508,#528,#540));
#542=MANIFOLD_SOLID_BREP('Volumenk\S\vrper1',#541);
#543=COLOUR_RGB('Metall - Stahl',0.639216005802155,0.639216005802155,0.686275005340576);
#544=FILL_AREA_STYLE_COLOUR('Metall - Stahl',#543);
#545=FILL_AREA_STYLE('Metall - Stahl',(#544));
#546=SURFACE_STYLE_FILL_AREA(#545);
#547=SURFACE_SIDE_STYLE('Metall - Stahl',(#546));
#548=SURFACE_STYLE_USAGE(.BOTH.,#547);
#549=PRESENTATION_STYLE_ASSIGNMENT((#548));
#550=STYLED_ITEM('',(#549),#542);
#551=MECHANICAL_DESIGN_GEOMETRIC_PRESENTATION_REPRESENTATION('',(#550),#36);
#552=ADVANCED_BREP_SHAPE_REPRESENTATION('ABSR',(#542),#75);
#553=SHAPE_REPRESENTATION_RELATIONSHIP('SRR','None',#552,#80);
#554=AXIS2_PLACEMENT_3D('',#555,#556,#557);
#555=CARTESIAN_POINT('',(0.0,0.0,0.0));
#556=DIRECTION('',(0.0,0.0,1.0));
#557=DIRECTION('',(1.0,0.0,0.0));
#558=NEXT_ASSEMBLY_USAGE_OCCURRENCE('SZ9010N#6#0001#A:1','SZ9010N#6#0001#A:1','SZ9010N#6#0001#A:1',#12,#51,'SZ9010N#6#0001#A:1');
#559=PRODUCT_DEFINITION_SHAPE('SZ9010N#6#0001#A:1','SZ9010N#6#0001#A:1',#558);
#560=ITEM_DEFINED_TRANSFORMATION('SZ9010N#6#0001#A:1','SZ9010N#6#0001#A:1',#76,#554);
#564=(REPRESENTATION_RELATIONSHIP('SZ9010N#6#0001#A:1','SZ9010N#6#0001#A:1',#80,#41)REPRESENTATION_RELATIONSHIP_WITH_TRANSFORMATION(#560)SHAPE_REPRESENTATION_RELATIONSHIP());
#565=CONTEXT_DEPENDENT_SHAPE_REPRESENTATION(#564,#559);
#566=AXIS2_PLACEMENT_3D('',#567,#568,#569);
#567=CARTESIAN_POINT('',(-150.000000000000030,-139.0,-1.332268E-014));
#568=DIRECTION('',(-5.777790E-032,-4.930381E-032,1.000000000000000));
#569=DIRECTION('',(1.000000000000000,-2.775558E-017,-1.241451E-016));
#570=NEXT_ASSEMBLY_USAGE_OCCURRENCE('SZ9010N#6#0001#A:2','SZ9010N#6#0001#A:2','SZ9010N#6#0001#A:2',#12,#51,'SZ9010N#6#0001#A:2');
#571=PRODUCT_DEFINITION_SHAPE('SZ9010N#6#0001#A:2','SZ9010N#6#0001#A:2',#570);
#572=ITEM_DEFINED_TRANSFORMATION('SZ9010N#6#0001#A:2','SZ9010N#6#0001#A:2',#76,#566);
#576=(REPRESENTATION_RELATIONSHIP('SZ9010N#6#0001#A:2','SZ9010N#6#0001#A:2',#80,#41)REPRESENTATION_RELATIONSHIP_WITH_TRANSFORMATION(#572)SHAPE_REPRESENTATION_RELATIONSHIP());
#577=CONTEXT_DEPENDENT_SHAPE_REPRESENTATION(#576,#571);
ENDSEC;
END-ISO-10303-21;
