ISO-10303-21;
HEADER;
/* Generated by software containing ST-Developer
 * from STEP Tools, Inc. (www.steptools.com) 
 */

FILE_DESCRIPTION(
/* description */ ('Trapezteller 60 f\X\FCr Gelenkstellf\X\FC\X\DFe'),
/* implementation_level */ '2;1');

FILE_NAME(
/* name */ 
'T:\\Produktinformationen\\MT\\I40\\3D-Files I40\\Trapezteller f\X\FCr
 Gelenkstellf\X\FC\X\DFe\\203600200 Trapezteller 60 f\X\FCr Gelenkstel
lf\X\FC\X\DFe.stp',
/* time_stamp */ '2020-08-19T14:45:32+02:00',
/* author */ ('wheldmann'),
/* organization */ (''),
/* preprocessor_version */ 'ST-DEVELOPER v17.2',
/* originating_system */ 'Autodesk Inventor 2019',
/* authorisation */ ' ');

FILE_SCHEMA (('AUTOMOTIVE_DESIGN { 1 0 10303 214 3 1 1 }'));
ENDSEC;

DATA;
#10=MECHANICAL_DESIGN_GEOMETRIC_PRESENTATION_REPRESENTATION('',(#13),#459);
#11=SHAPE_REPRESENTATION_RELATIONSHIP('SRR','None',#466,#12);
#12=ADVANCED_BREP_SHAPE_REPRESENTATION('',(#14),#458);
#13=STYLED_ITEM('',(#475),#14);
#14=MANIFOLD_SOLID_BREP('Volumenk\X\F6rper2',#236);
#15=SPHERICAL_SURFACE('',#280,7.6);
#16=TOROIDAL_SURFACE('',#273,27.3582995455,2.);
#17=TOROIDAL_SURFACE('',#293,15.3811595201,2.);
#18=CONICAL_SURFACE('',#270,29.3570811996,0.034906585);
#19=CONICAL_SURFACE('',#277,16.7953730825,0.7853981634);
#20=CONICAL_SURFACE('',#285,7.6,0.0944549354);
#21=CONICAL_SURFACE('',#288,7.42,0.2825549525);
#22=FACE_BOUND('',#44,.T.);
#23=FACE_BOUND('',#47,.T.);
#24=FACE_BOUND('',#55,.T.);
#25=PLANE('',#261);
#26=PLANE('',#267);
#27=PLANE('',#290);
#28=PLANE('',#295);
#29=FACE_OUTER_BOUND('',#42,.T.);
#30=FACE_OUTER_BOUND('',#43,.T.);
#31=FACE_OUTER_BOUND('',#45,.T.);
#32=FACE_OUTER_BOUND('',#46,.T.);
#33=FACE_OUTER_BOUND('',#48,.T.);
#34=FACE_OUTER_BOUND('',#49,.T.);
#35=FACE_OUTER_BOUND('',#50,.T.);
#36=FACE_OUTER_BOUND('',#51,.T.);
#37=FACE_OUTER_BOUND('',#52,.T.);
#38=FACE_OUTER_BOUND('',#53,.T.);
#39=FACE_OUTER_BOUND('',#54,.T.);
#40=FACE_OUTER_BOUND('',#56,.T.);
#41=FACE_OUTER_BOUND('',#57,.T.);
#42=EDGE_LOOP('',(#155,#156,#157,#158,#159,#160));
#43=EDGE_LOOP('',(#161,#162));
#44=EDGE_LOOP('',(#163,#164));
#45=EDGE_LOOP('',(#165,#166,#167,#168,#169,#170));
#46=EDGE_LOOP('',(#171,#172));
#47=EDGE_LOOP('',(#173,#174));
#48=EDGE_LOOP('',(#175,#176,#177,#178,#179,#180));
#49=EDGE_LOOP('',(#181,#182,#183,#184,#185,#186));
#50=EDGE_LOOP('',(#187,#188,#189,#190,#191,#192));
#51=EDGE_LOOP('',(#193,#194,#195,#196,#197));
#52=EDGE_LOOP('',(#198,#199,#200,#201,#202,#203,#204));
#53=EDGE_LOOP('',(#205,#206,#207,#208,#209));
#54=EDGE_LOOP('',(#210,#211));
#55=EDGE_LOOP('',(#212));
#56=EDGE_LOOP('',(#213,#214,#215,#216,#217,#218));
#57=EDGE_LOOP('',(#219,#220));
#58=LINE('',#390,#64);
#59=LINE('',#404,#65);
#60=LINE('',#413,#66);
#61=LINE('',#425,#67);
#62=LINE('',#443,#68);
#63=LINE('',#446,#69);
#64=VECTOR('',#302,7.5);
#65=VECTOR('',#319,25.);
#66=VECTOR('',#330,29.3570811996);
#67=VECTOR('',#345,16.7953730825);
#68=VECTOR('',#366,7.6);
#69=VECTOR('',#369,7.42);
#70=CIRCLE('',#257,7.5);
#71=CIRCLE('',#258,7.5);
#72=CIRCLE('',#259,7.5);
#73=CIRCLE('',#260,7.5);
#74=CIRCLE('',#262,25.);
#75=CIRCLE('',#263,25.);
#76=CIRCLE('',#265,25.);
#77=CIRCLE('',#266,25.);
#78=CIRCLE('',#268,29.5);
#79=CIRCLE('',#269,29.5);
#80=CIRCLE('',#271,29.3570811996);
#81=CIRCLE('',#272,29.3570811996);
#82=CIRCLE('',#274,2.);
#83=CIRCLE('',#275,28.7725131079);
#84=CIRCLE('',#276,28.7725131079);
#85=CIRCLE('',#278,16.7953730825);
#86=CIRCLE('',#279,16.7953730825);
#87=CIRCLE('',#281,7.6);
#88=CIRCLE('',#282,7.6);
#89=CIRCLE('',#283,7.6);
#90=CIRCLE('',#284,7.6);
#91=CIRCLE('',#286,7.42);
#92=CIRCLE('',#287,7.42);
#93=CIRCLE('',#289,7.6);
#94=CIRCLE('',#291,15.3811595201);
#95=CIRCLE('',#292,15.3811595201);
#96=CIRCLE('',#294,2.);
#97=VERTEX_POINT('',#386);
#98=VERTEX_POINT('',#387);
#99=VERTEX_POINT('',#389);
#100=VERTEX_POINT('',#391);
#101=VERTEX_POINT('',#396);
#102=VERTEX_POINT('',#397);
#103=VERTEX_POINT('',#401);
#104=VERTEX_POINT('',#402);
#105=VERTEX_POINT('',#407);
#106=VERTEX_POINT('',#408);
#107=VERTEX_POINT('',#412);
#108=VERTEX_POINT('',#414);
#109=VERTEX_POINT('',#418);
#110=VERTEX_POINT('',#420);
#111=VERTEX_POINT('',#424);
#112=VERTEX_POINT('',#426);
#113=VERTEX_POINT('',#430);
#114=VERTEX_POINT('',#431);
#115=VERTEX_POINT('',#433);
#116=VERTEX_POINT('',#436);
#117=VERTEX_POINT('',#439);
#118=VERTEX_POINT('',#440);
#119=VERTEX_POINT('',#445);
#120=VERTEX_POINT('',#449);
#121=VERTEX_POINT('',#450);
#122=EDGE_CURVE('',#97,#98,#70,.T.);
#123=EDGE_CURVE('',#98,#99,#58,.T.);
#124=EDGE_CURVE('',#100,#99,#71,.T.);
#125=EDGE_CURVE('',#99,#100,#72,.T.);
#126=EDGE_CURVE('',#98,#97,#73,.T.);
#127=EDGE_CURVE('',#101,#102,#74,.T.);
#128=EDGE_CURVE('',#102,#101,#75,.T.);
#129=EDGE_CURVE('',#103,#104,#76,.T.);
#130=EDGE_CURVE('',#104,#102,#59,.T.);
#131=EDGE_CURVE('',#104,#103,#77,.T.);
#132=EDGE_CURVE('',#105,#106,#78,.T.);
#133=EDGE_CURVE('',#106,#105,#79,.T.);
#134=EDGE_CURVE('',#106,#107,#60,.T.);
#135=EDGE_CURVE('',#107,#108,#80,.T.);
#136=EDGE_CURVE('',#108,#107,#81,.T.);
#137=EDGE_CURVE('',#107,#109,#82,.T.);
#138=EDGE_CURVE('',#109,#110,#83,.T.);
#139=EDGE_CURVE('',#110,#109,#84,.T.);
#140=EDGE_CURVE('',#109,#111,#61,.T.);
#141=EDGE_CURVE('',#111,#112,#85,.T.);
#142=EDGE_CURVE('',#112,#111,#86,.T.);
#143=EDGE_CURVE('',#113,#114,#87,.T.);
#144=EDGE_CURVE('',#115,#113,#88,.T.);
#145=EDGE_CURVE('',#114,#115,#89,.T.);
#146=EDGE_CURVE('',#114,#116,#90,.T.);
#147=EDGE_CURVE('',#117,#118,#91,.T.);
#148=EDGE_CURVE('',#118,#117,#92,.T.);
#149=EDGE_CURVE('',#118,#115,#62,.T.);
#150=EDGE_CURVE('',#117,#119,#63,.T.);
#151=EDGE_CURVE('',#119,#119,#93,.T.);
#152=EDGE_CURVE('',#120,#121,#94,.T.);
#153=EDGE_CURVE('',#121,#120,#95,.T.);
#154=EDGE_CURVE('',#111,#121,#96,.T.);
#155=ORIENTED_EDGE('',*,*,#122,.T.);
#156=ORIENTED_EDGE('',*,*,#123,.T.);
#157=ORIENTED_EDGE('',*,*,#124,.F.);
#158=ORIENTED_EDGE('',*,*,#125,.F.);
#159=ORIENTED_EDGE('',*,*,#123,.F.);
#160=ORIENTED_EDGE('',*,*,#126,.T.);
#161=ORIENTED_EDGE('',*,*,#127,.T.);
#162=ORIENTED_EDGE('',*,*,#128,.T.);
#163=ORIENTED_EDGE('',*,*,#122,.F.);
#164=ORIENTED_EDGE('',*,*,#126,.F.);
#165=ORIENTED_EDGE('',*,*,#129,.T.);
#166=ORIENTED_EDGE('',*,*,#130,.T.);
#167=ORIENTED_EDGE('',*,*,#127,.F.);
#168=ORIENTED_EDGE('',*,*,#128,.F.);
#169=ORIENTED_EDGE('',*,*,#130,.F.);
#170=ORIENTED_EDGE('',*,*,#131,.T.);
#171=ORIENTED_EDGE('',*,*,#132,.T.);
#172=ORIENTED_EDGE('',*,*,#133,.T.);
#173=ORIENTED_EDGE('',*,*,#129,.F.);
#174=ORIENTED_EDGE('',*,*,#131,.F.);
#175=ORIENTED_EDGE('',*,*,#132,.F.);
#176=ORIENTED_EDGE('',*,*,#133,.F.);
#177=ORIENTED_EDGE('',*,*,#134,.T.);
#178=ORIENTED_EDGE('',*,*,#135,.T.);
#179=ORIENTED_EDGE('',*,*,#136,.T.);
#180=ORIENTED_EDGE('',*,*,#134,.F.);
#181=ORIENTED_EDGE('',*,*,#136,.F.);
#182=ORIENTED_EDGE('',*,*,#135,.F.);
#183=ORIENTED_EDGE('',*,*,#137,.T.);
#184=ORIENTED_EDGE('',*,*,#138,.T.);
#185=ORIENTED_EDGE('',*,*,#139,.T.);
#186=ORIENTED_EDGE('',*,*,#137,.F.);
#187=ORIENTED_EDGE('',*,*,#139,.F.);
#188=ORIENTED_EDGE('',*,*,#138,.F.);
#189=ORIENTED_EDGE('',*,*,#140,.T.);
#190=ORIENTED_EDGE('',*,*,#141,.T.);
#191=ORIENTED_EDGE('',*,*,#142,.T.);
#192=ORIENTED_EDGE('',*,*,#140,.F.);
#193=ORIENTED_EDGE('',*,*,#143,.F.);
#194=ORIENTED_EDGE('',*,*,#144,.F.);
#195=ORIENTED_EDGE('',*,*,#145,.F.);
#196=ORIENTED_EDGE('',*,*,#146,.T.);
#197=ORIENTED_EDGE('',*,*,#146,.F.);
#198=ORIENTED_EDGE('',*,*,#147,.F.);
#199=ORIENTED_EDGE('',*,*,#148,.F.);
#200=ORIENTED_EDGE('',*,*,#149,.T.);
#201=ORIENTED_EDGE('',*,*,#144,.T.);
#202=ORIENTED_EDGE('',*,*,#143,.T.);
#203=ORIENTED_EDGE('',*,*,#145,.T.);
#204=ORIENTED_EDGE('',*,*,#149,.F.);
#205=ORIENTED_EDGE('',*,*,#147,.T.);
#206=ORIENTED_EDGE('',*,*,#148,.T.);
#207=ORIENTED_EDGE('',*,*,#150,.T.);
#208=ORIENTED_EDGE('',*,*,#151,.F.);
#209=ORIENTED_EDGE('',*,*,#150,.F.);
#210=ORIENTED_EDGE('',*,*,#152,.F.);
#211=ORIENTED_EDGE('',*,*,#153,.F.);
#212=ORIENTED_EDGE('',*,*,#151,.T.);
#213=ORIENTED_EDGE('',*,*,#142,.F.);
#214=ORIENTED_EDGE('',*,*,#141,.F.);
#215=ORIENTED_EDGE('',*,*,#154,.T.);
#216=ORIENTED_EDGE('',*,*,#153,.T.);
#217=ORIENTED_EDGE('',*,*,#152,.T.);
#218=ORIENTED_EDGE('',*,*,#154,.F.);
#219=ORIENTED_EDGE('',*,*,#124,.T.);
#220=ORIENTED_EDGE('',*,*,#125,.T.);
#221=CYLINDRICAL_SURFACE('',#256,7.5);
#222=CYLINDRICAL_SURFACE('',#264,25.);
#223=ADVANCED_FACE('',(#29),#221,.T.);
#224=ADVANCED_FACE('',(#30,#22),#25,.F.);
#225=ADVANCED_FACE('',(#31),#222,.F.);
#226=ADVANCED_FACE('',(#32,#23),#26,.F.);
#227=ADVANCED_FACE('',(#33),#18,.T.);
#228=ADVANCED_FACE('',(#34),#16,.T.);
#229=ADVANCED_FACE('',(#35),#19,.T.);
#230=ADVANCED_FACE('',(#36),#15,.F.);
#231=ADVANCED_FACE('',(#37),#20,.F.);
#232=ADVANCED_FACE('',(#38),#21,.F.);
#233=ADVANCED_FACE('',(#39,#24),#27,.F.);
#234=ADVANCED_FACE('',(#40),#17,.T.);
#235=ADVANCED_FACE('',(#41),#28,.F.);
#236=CLOSED_SHELL('',(#223,#224,#225,#226,#227,#228,#229,#230,#231,#232,
#233,#234,#235));
#237=DERIVED_UNIT_ELEMENT(#239,1.);
#238=DERIVED_UNIT_ELEMENT(#461,3.);
#239=(
MASS_UNIT()
NAMED_UNIT(*)
SI_UNIT($,.GRAM.)
);
#240=DERIVED_UNIT((#237,#238));
#241=MEASURE_REPRESENTATION_ITEM('density measure',
POSITIVE_RATIO_MEASURE(6.7),#240);
#242=PROPERTY_DEFINITION_REPRESENTATION(#247,#244);
#243=PROPERTY_DEFINITION_REPRESENTATION(#248,#245);
#244=REPRESENTATION('material name',(#246),#458);
#245=REPRESENTATION('density',(#241),#458);
#246=DESCRIPTIVE_REPRESENTATION_ITEM('ZP0410 (ZnAl4Cu1)',
'ZP0410 (ZnAl4Cu1)');
#247=PROPERTY_DEFINITION('material property','material name',#468);
#248=PROPERTY_DEFINITION('material property','density of part',#468);
#249=DATE_TIME_ROLE('creation_date');
#250=APPLIED_DATE_AND_TIME_ASSIGNMENT(#251,#249,(#468));
#251=DATE_AND_TIME(#252,#253);
#252=CALENDAR_DATE(2020,19,8);
#253=LOCAL_TIME(14,0,50.,#254);
#254=COORDINATED_UNIVERSAL_TIME_OFFSET(0,0,.BEHIND.);
#255=AXIS2_PLACEMENT_3D('placement',#384,#296,#297);
#256=AXIS2_PLACEMENT_3D('',#385,#298,#299);
#257=AXIS2_PLACEMENT_3D('',#388,#300,#301);
#258=AXIS2_PLACEMENT_3D('',#392,#303,#304);
#259=AXIS2_PLACEMENT_3D('',#393,#305,#306);
#260=AXIS2_PLACEMENT_3D('',#394,#307,#308);
#261=AXIS2_PLACEMENT_3D('',#395,#309,#310);
#262=AXIS2_PLACEMENT_3D('',#398,#311,#312);
#263=AXIS2_PLACEMENT_3D('',#399,#313,#314);
#264=AXIS2_PLACEMENT_3D('',#400,#315,#316);
#265=AXIS2_PLACEMENT_3D('',#403,#317,#318);
#266=AXIS2_PLACEMENT_3D('',#405,#320,#321);
#267=AXIS2_PLACEMENT_3D('',#406,#322,#323);
#268=AXIS2_PLACEMENT_3D('',#409,#324,#325);
#269=AXIS2_PLACEMENT_3D('',#410,#326,#327);
#270=AXIS2_PLACEMENT_3D('',#411,#328,#329);
#271=AXIS2_PLACEMENT_3D('',#415,#331,#332);
#272=AXIS2_PLACEMENT_3D('',#416,#333,#334);
#273=AXIS2_PLACEMENT_3D('',#417,#335,#336);
#274=AXIS2_PLACEMENT_3D('',#419,#337,#338);
#275=AXIS2_PLACEMENT_3D('',#421,#339,#340);
#276=AXIS2_PLACEMENT_3D('',#422,#341,#342);
#277=AXIS2_PLACEMENT_3D('',#423,#343,#344);
#278=AXIS2_PLACEMENT_3D('',#427,#346,#347);
#279=AXIS2_PLACEMENT_3D('',#428,#348,#349);
#280=AXIS2_PLACEMENT_3D('',#429,#350,#351);
#281=AXIS2_PLACEMENT_3D('',#432,#352,#353);
#282=AXIS2_PLACEMENT_3D('',#434,#354,#355);
#283=AXIS2_PLACEMENT_3D('',#435,#356,#357);
#284=AXIS2_PLACEMENT_3D('',#437,#358,#359);
#285=AXIS2_PLACEMENT_3D('',#438,#360,#361);
#286=AXIS2_PLACEMENT_3D('',#441,#362,#363);
#287=AXIS2_PLACEMENT_3D('',#442,#364,#365);
#288=AXIS2_PLACEMENT_3D('',#444,#367,#368);
#289=AXIS2_PLACEMENT_3D('',#447,#370,#371);
#290=AXIS2_PLACEMENT_3D('',#448,#372,#373);
#291=AXIS2_PLACEMENT_3D('',#451,#374,#375);
#292=AXIS2_PLACEMENT_3D('',#452,#376,#377);
#293=AXIS2_PLACEMENT_3D('',#453,#378,#379);
#294=AXIS2_PLACEMENT_3D('',#454,#380,#381);
#295=AXIS2_PLACEMENT_3D('',#455,#382,#383);
#296=DIRECTION('axis',(0.,0.,1.));
#297=DIRECTION('refdir',(1.,0.,0.));
#298=DIRECTION('center_axis',(0.,-2.22044604925031E-16,1.));
#299=DIRECTION('ref_axis',(0.,1.,2.22044604925031E-16));
#300=DIRECTION('center_axis',(0.,2.22044604925031E-16,-1.));
#301=DIRECTION('ref_axis',(0.,1.,2.22044604925031E-16));
#302=DIRECTION('',(0.,2.22044604925031E-16,-1.));
#303=DIRECTION('center_axis',(0.,2.22044604925031E-16,-1.));
#304=DIRECTION('ref_axis',(0.,1.,2.22044604925031E-16));
#305=DIRECTION('center_axis',(0.,2.22044604925031E-16,-1.));
#306=DIRECTION('ref_axis',(0.,1.,2.22044604925031E-16));
#307=DIRECTION('center_axis',(0.,2.22044604925031E-16,-1.));
#308=DIRECTION('ref_axis',(0.,1.,2.22044604925031E-16));
#309=DIRECTION('center_axis',(0.,-2.22044604925031E-16,1.));
#310=DIRECTION('ref_axis',(0.,-1.,-2.22044604925031E-16));
#311=DIRECTION('center_axis',(0.,2.22044604925031E-16,-1.));
#312=DIRECTION('ref_axis',(0.,1.,2.22044604925031E-16));
#313=DIRECTION('center_axis',(0.,2.22044604925031E-16,-1.));
#314=DIRECTION('ref_axis',(0.,1.,2.22044604925031E-16));
#315=DIRECTION('center_axis',(0.,-2.22044604925031E-16,1.));
#316=DIRECTION('ref_axis',(0.,1.,2.22044604925031E-16));
#317=DIRECTION('center_axis',(0.,2.22044604925031E-16,-1.));
#318=DIRECTION('ref_axis',(0.,1.,2.22044604925031E-16));
#319=DIRECTION('',(0.,-2.22044604925031E-16,1.));
#320=DIRECTION('center_axis',(0.,2.22044604925031E-16,-1.));
#321=DIRECTION('ref_axis',(0.,1.,2.22044604925031E-16));
#322=DIRECTION('center_axis',(0.,-2.22044604925031E-16,1.));
#323=DIRECTION('ref_axis',(0.,-1.,-2.22044604925031E-16));
#324=DIRECTION('center_axis',(0.,2.22044604925031E-16,-1.));
#325=DIRECTION('ref_axis',(0.,1.,2.22044604925031E-16));
#326=DIRECTION('center_axis',(0.,2.22044604925031E-16,-1.));
#327=DIRECTION('ref_axis',(0.,1.,2.22044604925031E-16));
#328=DIRECTION('center_axis',(0.,2.22044604925031E-16,-1.));
#329=DIRECTION('ref_axis',(0.,1.,2.22044604925031E-16));
#330=DIRECTION('',(4.27395568797542E-18,0.0348994966626385,0.999390827020488));
#331=DIRECTION('center_axis',(0.,2.22044604925031E-16,-1.));
#332=DIRECTION('ref_axis',(0.,1.,2.22044604925031E-16));
#333=DIRECTION('center_axis',(0.,2.22044604925031E-16,-1.));
#334=DIRECTION('ref_axis',(0.,1.,2.22044604925031E-16));
#335=DIRECTION('center_axis',(0.,2.22044604925031E-16,-1.));
#336=DIRECTION('ref_axis',(0.,1.,2.11771425257968E-16));
#337=DIRECTION('center_axis',(-1.,1.22464679914735E-16,2.71926214689378E-32));
#338=DIRECTION('ref_axis',(-1.22464679914735E-16,-1.,-2.26897955633537E-16));
#339=DIRECTION('center_axis',(0.,2.22044604925031E-16,-1.));
#340=DIRECTION('ref_axis',(0.,1.,2.22044604925031E-16));
#341=DIRECTION('center_axis',(0.,2.22044604925031E-16,-1.));
#342=DIRECTION('ref_axis',(0.,1.,2.22044604925031E-16));
#343=DIRECTION('center_axis',(0.,2.22044604925031E-16,-1.));
#344=DIRECTION('ref_axis',(0.,1.,2.22044604925031E-16));
#345=DIRECTION('',(8.65956056237703E-17,0.707106781188352,0.707106781184743));
#346=DIRECTION('center_axis',(0.,2.22044604925031E-16,-1.));
#347=DIRECTION('ref_axis',(0.,1.,2.22044604925031E-16));
#348=DIRECTION('center_axis',(0.,2.22044604925031E-16,-1.));
#349=DIRECTION('ref_axis',(0.,1.,2.22044604925031E-16));
#350=DIRECTION('center_axis',(-1.22464679914735E-16,2.22044604925031E-16,
-1.));
#351=DIRECTION('ref_axis',(-1.,0.,0.));
#352=DIRECTION('center_axis',(0.,2.22044604925031E-16,-1.));
#353=DIRECTION('ref_axis',(0.,1.,2.22044604925031E-16));
#354=DIRECTION('center_axis',(0.,2.22044604925031E-16,-1.));
#355=DIRECTION('ref_axis',(0.,1.,2.22044604925031E-16));
#356=DIRECTION('center_axis',(0.,2.22044604925031E-16,-1.));
#357=DIRECTION('ref_axis',(0.,1.,2.22044604925031E-16));
#358=DIRECTION('center_axis',(1.22464679914735E-16,1.,2.22044604925031E-16));
#359=DIRECTION('ref_axis',(1.,-1.22464679914735E-16,0.));
#360=DIRECTION('center_axis',(0.,2.22044604925031E-16,-1.));
#361=DIRECTION('ref_axis',(0.,1.,2.22044604925031E-16));
#362=DIRECTION('center_axis',(0.,2.22044604925031E-16,-1.));
#363=DIRECTION('ref_axis',(0.,1.,2.22044604925031E-16));
#364=DIRECTION('center_axis',(0.,2.22044604925031E-16,-1.));
#365=DIRECTION('ref_axis',(0.,1.,2.22044604925031E-16));
#366=DIRECTION('',(-1.15502008984876E-17,-0.0943145477253467,-0.995542448159476));
#367=DIRECTION('center_axis',(0.,-2.22044604925031E-16,1.));
#368=DIRECTION('ref_axis',(0.,-1.,-2.22044604925031E-16));
#369=DIRECTION('',(-3.4144401274556E-17,0.278810194893162,0.960346226745145));
#370=DIRECTION('center_axis',(0.,2.22044604925031E-16,-1.));
#371=DIRECTION('ref_axis',(0.,1.,2.22044604925031E-16));
#372=DIRECTION('center_axis',(0.,2.22044604925031E-16,-1.));
#373=DIRECTION('ref_axis',(0.,1.,2.22044604925031E-16));
#374=DIRECTION('center_axis',(0.,2.22044604925031E-16,-1.));
#375=DIRECTION('ref_axis',(0.,1.,2.22044604925031E-16));
#376=DIRECTION('center_axis',(0.,2.22044604925031E-16,-1.));
#377=DIRECTION('ref_axis',(0.,1.,2.22044604925031E-16));
#378=DIRECTION('center_axis',(0.,2.22044604925031E-16,-1.));
#379=DIRECTION('ref_axis',(0.,1.,2.0440026884812E-16));
#380=DIRECTION('center_axis',(-1.,1.22464679914735E-16,2.71926214689378E-32));
#381=DIRECTION('ref_axis',(-1.22464679914735E-16,-1.,-2.5550033606015E-16));
#382=DIRECTION('center_axis',(0.,-2.22044604925031E-16,1.));
#383=DIRECTION('ref_axis',(0.,-1.,-2.22044604925031E-16));
#384=CARTESIAN_POINT('',(0.,0.,0.));
#385=CARTESIAN_POINT('Origin',(0.,0.,0.));
#386=CARTESIAN_POINT('',(0.,7.5,5.));
#387=CARTESIAN_POINT('',(9.18485099360515E-16,-7.5,5.));
#388=CARTESIAN_POINT('Origin',(0.,-1.11022302462516E-15,5.));
#389=CARTESIAN_POINT('',(9.18485099360515E-16,-7.5,0.499999999999998));
#390=CARTESIAN_POINT('',(9.18485099360515E-16,-7.5,-1.66533453693773E-15));
#391=CARTESIAN_POINT('',(0.,7.5,0.500000000000002));
#392=CARTESIAN_POINT('Origin',(0.,-1.11022302462516E-16,0.5));
#393=CARTESIAN_POINT('Origin',(0.,-1.11022302462516E-16,0.5));
#394=CARTESIAN_POINT('Origin',(0.,-1.11022302462516E-15,5.));
#395=CARTESIAN_POINT('Origin',(25.,-1.11022302462516E-15,5.));
#396=CARTESIAN_POINT('',(0.,25.,5.00000000000001));
#397=CARTESIAN_POINT('',(3.06161699786838E-15,-25.,4.99999999999999));
#398=CARTESIAN_POINT('Origin',(0.,-1.11022302462516E-15,5.));
#399=CARTESIAN_POINT('Origin',(0.,-1.11022302462516E-15,5.));
#400=CARTESIAN_POINT('Origin',(0.,0.,0.));
#401=CARTESIAN_POINT('',(0.,25.,5.55111512312578E-15));
#402=CARTESIAN_POINT('',(3.06161699786838E-15,-25.,-5.55111512312578E-15));
#403=CARTESIAN_POINT('Origin',(0.,0.,0.));
#404=CARTESIAN_POINT('',(3.06161699786838E-15,-25.,-5.55111512312578E-15));
#405=CARTESIAN_POINT('Origin',(0.,0.,0.));
#406=CARTESIAN_POINT('Origin',(29.5,0.,0.));
#407=CARTESIAN_POINT('',(0.,29.5,6.55031584528842E-15));
#408=CARTESIAN_POINT('',(-3.61270805746839E-15,-29.4999999998668,-4.65683047679022E-12));
#409=CARTESIAN_POINT('Origin',(0.,0.,0.));
#410=CARTESIAN_POINT('Origin',(0.,0.,0.));
#411=CARTESIAN_POINT('Origin',(0.,-9.08752843644087E-16,4.09265896800739));
#412=CARTESIAN_POINT('',(-3.59520555233991E-15,-29.3570811996,4.09265896800738));
#413=CARTESIAN_POINT('',(-3.59520555233991E-15,-29.3570811996,4.09265896800738));
#414=CARTESIAN_POINT('',(0.,29.3570811995699,4.0926589680074));
#415=CARTESIAN_POINT('Origin',(0.,-9.08752843644087E-16,4.09265896800739));
#416=CARTESIAN_POINT('Origin',(0.,-9.08752843644087E-16,4.09265896800739));
#417=CARTESIAN_POINT('Origin',(0.,-8.93254353729311E-16,4.0228599746024));
#418=CARTESIAN_POINT('',(-3.5236166081015E-15,-28.7725131079,5.43707353697547));
#419=CARTESIAN_POINT('Origin',(-3.35042539685111E-15,-27.3582995455,4.02285997460239));
#420=CARTESIAN_POINT('',(0.,28.7725131079048,5.43707353697549));
#421=CARTESIAN_POINT('Origin',(0.,-1.20727284546606E-15,5.43707353697548));
#422=CARTESIAN_POINT('Origin',(0.,-1.20727284546606E-15,5.43707353697548));
#423=CARTESIAN_POINT('Origin',(0.,-3.86673217053726E-15,17.4142135623731));
#424=CARTESIAN_POINT('',(-2.05683998859692E-15,-16.7953730825,17.4142135623731));
#425=CARTESIAN_POINT('',(-2.05683998859692E-15,-16.7953730825,17.4142135623731));
#426=CARTESIAN_POINT('',(0.,16.7953730825072,17.4142135623731));
#427=CARTESIAN_POINT('Origin',(0.,-3.86673217053726E-15,17.4142135623731));
#428=CARTESIAN_POINT('Origin',(0.,-3.86673217053726E-15,17.4142135623731));
#429=CARTESIAN_POINT('Origin',(-8.67361737988404E-16,-3.43725048423948E-15,
15.48));
#430=CARTESIAN_POINT('',(0.,7.6,15.48));
#431=CARTESIAN_POINT('',(7.6,-4.36798205159147E-15,15.48));
#432=CARTESIAN_POINT('Origin',(0.,-3.43725048423948E-15,15.48));
#433=CARTESIAN_POINT('',(-9.30731567351989E-16,-7.6,15.48));
#434=CARTESIAN_POINT('Origin',(0.,-3.43725048423948E-15,15.48));
#435=CARTESIAN_POINT('Origin',(0.,-3.43725048423948E-15,15.48));
#436=CARTESIAN_POINT('',(-4.0199595431241E-16,-1.74971148680924E-15,7.88));
#437=CARTESIAN_POINT('Origin',(-8.67361737988404E-16,-3.43725048423948E-15,
15.48));
#438=CARTESIAN_POINT('Origin',(0.,-3.43725048423948E-15,15.48));
#439=CARTESIAN_POINT('',(0.,7.42,17.38));
#440=CARTESIAN_POINT('',(-9.08687924966184E-16,-7.41999999999059,17.3799999999991));
#441=CARTESIAN_POINT('Origin',(0.,-3.85913523359704E-15,17.38));
#442=CARTESIAN_POINT('Origin',(0.,-3.85913523359704E-15,17.38));
#443=CARTESIAN_POINT('',(-9.30731567351989E-16,-7.6,15.48));
#444=CARTESIAN_POINT('Origin',(0.,-3.85913523359704E-15,17.38));
#445=CARTESIAN_POINT('',(0.,7.6,18.));
#446=CARTESIAN_POINT('',(-9.08687924967336E-16,7.42,17.38));
#447=CARTESIAN_POINT('Origin',(0.,-3.99680288865056E-15,18.));
#448=CARTESIAN_POINT('Origin',(7.6,-3.99680288865056E-15,18.));
#449=CARTESIAN_POINT('',(0.,15.3811595201341,18.));
#450=CARTESIAN_POINT('',(-1.88364877734653E-15,-15.3811595201,18.));
#451=CARTESIAN_POINT('Origin',(0.,-3.99680288865056E-15,18.));
#452=CARTESIAN_POINT('Origin',(0.,-3.99680288865056E-15,18.));
#453=CARTESIAN_POINT('Origin',(0.,-3.5527136788005E-15,16.));
#454=CARTESIAN_POINT('Origin',(-1.88364877734653E-15,-15.3811595201,16.));
#455=CARTESIAN_POINT('Origin',(7.5,-1.11022302462516E-16,0.5));
#456=UNCERTAINTY_MEASURE_WITH_UNIT(LENGTH_MEASURE(0.01),#460,
'DISTANCE_ACCURACY_VALUE',
'Maximum model space distance between geometric entities at asserted c
onnectivities');
#457=UNCERTAINTY_MEASURE_WITH_UNIT(LENGTH_MEASURE(0.01),#460,
'DISTANCE_ACCURACY_VALUE',
'Maximum model space distance between geometric entities at asserted c
onnectivities');
#458=(
GEOMETRIC_REPRESENTATION_CONTEXT(3)
GLOBAL_UNCERTAINTY_ASSIGNED_CONTEXT((#456))
GLOBAL_UNIT_ASSIGNED_CONTEXT((#460,#462,#463))
REPRESENTATION_CONTEXT('','3D')
);
#459=(
GEOMETRIC_REPRESENTATION_CONTEXT(3)
GLOBAL_UNCERTAINTY_ASSIGNED_CONTEXT((#457))
GLOBAL_UNIT_ASSIGNED_CONTEXT((#460,#462,#463))
REPRESENTATION_CONTEXT('','3D')
);
#460=(
LENGTH_UNIT()
NAMED_UNIT(*)
SI_UNIT(.MILLI.,.METRE.)
);
#461=(
LENGTH_UNIT()
NAMED_UNIT(*)
SI_UNIT(.CENTI.,.METRE.)
);
#462=(
NAMED_UNIT(*)
PLANE_ANGLE_UNIT()
SI_UNIT($,.RADIAN.)
);
#463=(
NAMED_UNIT(*)
SI_UNIT($,.STERADIAN.)
SOLID_ANGLE_UNIT()
);
#464=SHAPE_DEFINITION_REPRESENTATION(#465,#466);
#465=PRODUCT_DEFINITION_SHAPE('',$,#468);
#466=SHAPE_REPRESENTATION('',(#255),#458);
#467=PRODUCT_DEFINITION_CONTEXT('part definition',#472,'design');
#468=PRODUCT_DEFINITION('203600200',
'203600200 Trapezteller 60 f\X\FCr Gelenkstellf\X\FC\X\DFe',#469,#467);
#469=PRODUCT_DEFINITION_FORMATION('',$,#474);
#470=PRODUCT_RELATED_PRODUCT_CATEGORY(
'203600200 Trapezteller 60 f\X\FCr Gelenkstellf\X\FC\X\DFe',
'203600200 Trapezteller 60 f\X\FCr Gelenkstellf\X\FC\X\DFe',(#474));
#471=APPLICATION_PROTOCOL_DEFINITION('international standard',
'automotive_design',2009,#472);
#472=APPLICATION_CONTEXT(
'Core Data for Automotive Mechanical Design Process');
#473=PRODUCT_CONTEXT('part definition',#472,'mechanical');
#474=PRODUCT('203600200',
'203600200 Trapezteller 60 f\X\FCr Gelenkstellf\X\FC\X\DFe',
'Trapezteller 60 f\X\FCr Gelenkstellf\X\FC\X\DFe',(#473));
#475=PRESENTATION_STYLE_ASSIGNMENT((#476));
#476=SURFACE_STYLE_USAGE(.BOTH.,#479);
#477=SURFACE_STYLE_RENDERING_WITH_PROPERTIES($,#483,(#478));
#478=SURFACE_STYLE_TRANSPARENT(0.);
#479=SURFACE_SIDE_STYLE('',(#480,#477));
#480=SURFACE_STYLE_FILL_AREA(#481);
#481=FILL_AREA_STYLE('',(#482));
#482=FILL_AREA_STYLE_COLOUR('',#483);
#483=COLOUR_RGB('',0.,0.,0.);
ENDSEC;
END-ISO-10303-21;
