ISO-10303-21;
HEADER;
/* Generated by software containing ST-Developer
 * from STEP Tools, Inc. (www.steptools.com) 
 */

FILE_DESCRIPTION(
/* description */ (''),
/* implementation_level */ '2;1');

FILE_NAME(
/* name */ 
'X:\\VIRI ZA WEB\\CAD DATOTEKE\\LINEARNE ENOTE UNIMOTION\\DODATNA OPRE
MA ZA LINEARNE ENOTE\\POVEZOVALNI ELEMENTI\\PRITRDILNE SPONE\\PRITRDIL
NA SPONA CTV_CTJ 90 L= 62 M4 B\\izvoz\\CAD_48636.stp',
/* time_stamp */ '2016-04-09T10:08:20+02:00',
/* author */ ('Hypex'),
/* organization */ ('Hypex'),
/* preprocessor_version */ 'ST-DEVELOPER v16.1',
/* originating_system */ 'Autodesk Inventor 2016',
/* authorisation */ '');

FILE_SCHEMA (('AUTOMOTIVE_DESIGN { 1 0 10303 214 3 1 1 }'));
ENDSEC;

DATA;
#10=MECHANICAL_DESIGN_GEOMETRIC_PRESENTATION_REPRESENTATION('',(#13),#550);
#11=SHAPE_REPRESENTATION_RELATIONSHIP('SRR','None',#559,#12);
#12=ADVANCED_BREP_SHAPE_REPRESENTATION('',(#14),#549);
#13=STYLED_ITEM('',(#568),#14);
#14=MANIFOLD_SOLID_BREP('Solid1',#338);
#15=LINE('',#482,#48);
#16=LINE('',#484,#49);
#17=LINE('',#486,#50);
#18=LINE('',#487,#51);
#19=LINE('',#490,#52);
#20=LINE('',#492,#53);
#21=LINE('',#494,#54);
#22=LINE('',#496,#55);
#23=LINE('',#498,#56);
#24=LINE('',#500,#57);
#25=LINE('',#502,#58);
#26=LINE('',#504,#59);
#27=LINE('',#506,#60);
#28=LINE('',#507,#61);
#29=LINE('',#510,#62);
#30=LINE('',#511,#63);
#31=LINE('',#514,#64);
#32=LINE('',#515,#65);
#33=LINE('',#518,#66);
#34=LINE('',#519,#67);
#35=LINE('',#522,#68);
#36=LINE('',#523,#69);
#37=LINE('',#526,#70);
#38=LINE('',#527,#71);
#39=LINE('',#530,#72);
#40=LINE('',#531,#73);
#41=LINE('',#534,#74);
#42=LINE('',#535,#75);
#43=LINE('',#538,#76);
#44=LINE('',#539,#77);
#45=LINE('',#542,#78);
#46=LINE('',#543,#79);
#47=LINE('',#545,#80);
#48=VECTOR('',#399,0.707106781186545);
#49=VECTOR('',#400,62.);
#50=VECTOR('',#401,0.707106781186545);
#51=VECTOR('',#402,62.);
#52=VECTOR('',#405,14.5);
#53=VECTOR('',#406,4.);
#54=VECTOR('',#407,1.79999999999998);
#55=VECTOR('',#408,0.499999999999989);
#56=VECTOR('',#409,2.20000000000001);
#57=VECTOR('',#410,5.1);
#58=VECTOR('',#411,9.00000000000002);
#59=VECTOR('',#412,0.4);
#60=VECTOR('',#413,1.99999999999999);
#61=VECTOR('',#414,8.50000000000001);
#62=VECTOR('',#417,14.5);
#63=VECTOR('',#418,62.);
#64=VECTOR('',#421,4.);
#65=VECTOR('',#422,62.);
#66=VECTOR('',#425,1.79999999999998);
#67=VECTOR('',#426,62.);
#68=VECTOR('',#429,0.499999999999989);
#69=VECTOR('',#430,62.);
#70=VECTOR('',#433,2.20000000000001);
#71=VECTOR('',#434,62.);
#72=VECTOR('',#437,5.1);
#73=VECTOR('',#438,62.);
#74=VECTOR('',#441,9.00000000000002);
#75=VECTOR('',#442,62.);
#76=VECTOR('',#445,0.4);
#77=VECTOR('',#446,62.);
#78=VECTOR('',#449,1.99999999999999);
#79=VECTOR('',#450,62.);
#80=VECTOR('',#453,8.50000000000001);
#81=CYLINDRICAL_SURFACE('',#343,4.);
#82=CYLINDRICAL_SURFACE('',#345,2.25);
#83=CYLINDRICAL_SURFACE('',#350,4.);
#84=CYLINDRICAL_SURFACE('',#352,2.25);
#85=FACE_BOUND('',#115,.T.);
#86=FACE_BOUND('',#117,.T.);
#87=FACE_BOUND('',#119,.T.);
#88=FACE_BOUND('',#121,.T.);
#89=FACE_BOUND('',#123,.T.);
#90=FACE_BOUND('',#125,.T.);
#91=FACE_BOUND('',#129,.T.);
#92=FACE_BOUND('',#130,.T.);
#93=FACE_BOUND('',#137,.T.);
#94=FACE_BOUND('',#138,.T.);
#95=FACE_OUTER_BOUND('',#114,.T.);
#96=FACE_OUTER_BOUND('',#116,.T.);
#97=FACE_OUTER_BOUND('',#118,.T.);
#98=FACE_OUTER_BOUND('',#120,.T.);
#99=FACE_OUTER_BOUND('',#122,.T.);
#100=FACE_OUTER_BOUND('',#124,.T.);
#101=FACE_OUTER_BOUND('',#126,.T.);
#102=FACE_OUTER_BOUND('',#127,.T.);
#103=FACE_OUTER_BOUND('',#128,.T.);
#104=FACE_OUTER_BOUND('',#131,.T.);
#105=FACE_OUTER_BOUND('',#132,.T.);
#106=FACE_OUTER_BOUND('',#133,.T.);
#107=FACE_OUTER_BOUND('',#134,.T.);
#108=FACE_OUTER_BOUND('',#135,.T.);
#109=FACE_OUTER_BOUND('',#136,.T.);
#110=FACE_OUTER_BOUND('',#139,.T.);
#111=FACE_OUTER_BOUND('',#140,.T.);
#112=FACE_OUTER_BOUND('',#141,.T.);
#113=FACE_OUTER_BOUND('',#142,.T.);
#114=EDGE_LOOP('',(#222));
#115=EDGE_LOOP('',(#223));
#116=EDGE_LOOP('',(#224));
#117=EDGE_LOOP('',(#225));
#118=EDGE_LOOP('',(#226));
#119=EDGE_LOOP('',(#227));
#120=EDGE_LOOP('',(#228));
#121=EDGE_LOOP('',(#229));
#122=EDGE_LOOP('',(#230));
#123=EDGE_LOOP('',(#231));
#124=EDGE_LOOP('',(#232));
#125=EDGE_LOOP('',(#233));
#126=EDGE_LOOP('',(#234,#235,#236,#237));
#127=EDGE_LOOP('',(#238,#239,#240,#241,#242,#243,#244,#245,#246,#247,#248));
#128=EDGE_LOOP('',(#249,#250,#251,#252));
#129=EDGE_LOOP('',(#253));
#130=EDGE_LOOP('',(#254));
#131=EDGE_LOOP('',(#255,#256,#257,#258));
#132=EDGE_LOOP('',(#259,#260,#261,#262));
#133=EDGE_LOOP('',(#263,#264,#265,#266));
#134=EDGE_LOOP('',(#267,#268,#269,#270));
#135=EDGE_LOOP('',(#271,#272,#273,#274));
#136=EDGE_LOOP('',(#275,#276,#277,#278));
#137=EDGE_LOOP('',(#279));
#138=EDGE_LOOP('',(#280));
#139=EDGE_LOOP('',(#281,#282,#283,#284));
#140=EDGE_LOOP('',(#285,#286,#287,#288));
#141=EDGE_LOOP('',(#289,#290,#291,#292));
#142=EDGE_LOOP('',(#293,#294,#295,#296,#297,#298,#299,#300,#301,#302,#303));
#143=CIRCLE('',#341,4.);
#144=CIRCLE('',#342,2.25);
#145=CIRCLE('',#344,4.);
#146=CIRCLE('',#346,2.25);
#147=CIRCLE('',#348,4.);
#148=CIRCLE('',#349,2.25);
#149=CIRCLE('',#351,4.);
#150=CIRCLE('',#353,2.25);
#151=VERTEX_POINT('',#458);
#152=VERTEX_POINT('',#460);
#153=VERTEX_POINT('',#463);
#154=VERTEX_POINT('',#466);
#155=VERTEX_POINT('',#469);
#156=VERTEX_POINT('',#471);
#157=VERTEX_POINT('',#474);
#158=VERTEX_POINT('',#477);
#159=VERTEX_POINT('',#480);
#160=VERTEX_POINT('',#481);
#161=VERTEX_POINT('',#483);
#162=VERTEX_POINT('',#485);
#163=VERTEX_POINT('',#489);
#164=VERTEX_POINT('',#491);
#165=VERTEX_POINT('',#493);
#166=VERTEX_POINT('',#495);
#167=VERTEX_POINT('',#497);
#168=VERTEX_POINT('',#499);
#169=VERTEX_POINT('',#501);
#170=VERTEX_POINT('',#503);
#171=VERTEX_POINT('',#505);
#172=VERTEX_POINT('',#509);
#173=VERTEX_POINT('',#513);
#174=VERTEX_POINT('',#517);
#175=VERTEX_POINT('',#521);
#176=VERTEX_POINT('',#525);
#177=VERTEX_POINT('',#529);
#178=VERTEX_POINT('',#533);
#179=VERTEX_POINT('',#537);
#180=VERTEX_POINT('',#541);
#181=EDGE_CURVE('',#151,#151,#143,.T.);
#182=EDGE_CURVE('',#152,#152,#144,.T.);
#183=EDGE_CURVE('',#153,#153,#145,.T.);
#184=EDGE_CURVE('',#154,#154,#146,.T.);
#185=EDGE_CURVE('',#155,#155,#147,.T.);
#186=EDGE_CURVE('',#156,#156,#148,.T.);
#187=EDGE_CURVE('',#157,#157,#149,.T.);
#188=EDGE_CURVE('',#158,#158,#150,.T.);
#189=EDGE_CURVE('',#159,#160,#15,.T.);
#190=EDGE_CURVE('',#160,#161,#16,.T.);
#191=EDGE_CURVE('',#161,#162,#17,.T.);
#192=EDGE_CURVE('',#162,#159,#18,.T.);
#193=EDGE_CURVE('',#163,#161,#19,.T.);
#194=EDGE_CURVE('',#164,#163,#20,.T.);
#195=EDGE_CURVE('',#165,#164,#21,.T.);
#196=EDGE_CURVE('',#166,#165,#22,.T.);
#197=EDGE_CURVE('',#167,#166,#23,.T.);
#198=EDGE_CURVE('',#168,#167,#24,.T.);
#199=EDGE_CURVE('',#169,#168,#25,.T.);
#200=EDGE_CURVE('',#170,#169,#26,.T.);
#201=EDGE_CURVE('',#171,#170,#27,.T.);
#202=EDGE_CURVE('',#162,#171,#28,.T.);
#203=EDGE_CURVE('',#160,#172,#29,.T.);
#204=EDGE_CURVE('',#163,#172,#30,.T.);
#205=EDGE_CURVE('',#172,#173,#31,.T.);
#206=EDGE_CURVE('',#164,#173,#32,.T.);
#207=EDGE_CURVE('',#173,#174,#33,.T.);
#208=EDGE_CURVE('',#165,#174,#34,.T.);
#209=EDGE_CURVE('',#174,#175,#35,.T.);
#210=EDGE_CURVE('',#166,#175,#36,.T.);
#211=EDGE_CURVE('',#175,#176,#37,.T.);
#212=EDGE_CURVE('',#167,#176,#38,.T.);
#213=EDGE_CURVE('',#176,#177,#39,.T.);
#214=EDGE_CURVE('',#168,#177,#40,.T.);
#215=EDGE_CURVE('',#177,#178,#41,.T.);
#216=EDGE_CURVE('',#169,#178,#42,.T.);
#217=EDGE_CURVE('',#178,#179,#43,.T.);
#218=EDGE_CURVE('',#170,#179,#44,.T.);
#219=EDGE_CURVE('',#179,#180,#45,.T.);
#220=EDGE_CURVE('',#171,#180,#46,.T.);
#221=EDGE_CURVE('',#180,#159,#47,.T.);
#222=ORIENTED_EDGE('',*,*,#181,.T.);
#223=ORIENTED_EDGE('',*,*,#182,.F.);
#224=ORIENTED_EDGE('',*,*,#183,.F.);
#225=ORIENTED_EDGE('',*,*,#181,.F.);
#226=ORIENTED_EDGE('',*,*,#184,.F.);
#227=ORIENTED_EDGE('',*,*,#182,.T.);
#228=ORIENTED_EDGE('',*,*,#185,.T.);
#229=ORIENTED_EDGE('',*,*,#186,.F.);
#230=ORIENTED_EDGE('',*,*,#187,.F.);
#231=ORIENTED_EDGE('',*,*,#185,.F.);
#232=ORIENTED_EDGE('',*,*,#188,.F.);
#233=ORIENTED_EDGE('',*,*,#186,.T.);
#234=ORIENTED_EDGE('',*,*,#189,.T.);
#235=ORIENTED_EDGE('',*,*,#190,.T.);
#236=ORIENTED_EDGE('',*,*,#191,.T.);
#237=ORIENTED_EDGE('',*,*,#192,.T.);
#238=ORIENTED_EDGE('',*,*,#191,.F.);
#239=ORIENTED_EDGE('',*,*,#193,.F.);
#240=ORIENTED_EDGE('',*,*,#194,.F.);
#241=ORIENTED_EDGE('',*,*,#195,.F.);
#242=ORIENTED_EDGE('',*,*,#196,.F.);
#243=ORIENTED_EDGE('',*,*,#197,.F.);
#244=ORIENTED_EDGE('',*,*,#198,.F.);
#245=ORIENTED_EDGE('',*,*,#199,.F.);
#246=ORIENTED_EDGE('',*,*,#200,.F.);
#247=ORIENTED_EDGE('',*,*,#201,.F.);
#248=ORIENTED_EDGE('',*,*,#202,.F.);
#249=ORIENTED_EDGE('',*,*,#190,.F.);
#250=ORIENTED_EDGE('',*,*,#203,.T.);
#251=ORIENTED_EDGE('',*,*,#204,.F.);
#252=ORIENTED_EDGE('',*,*,#193,.T.);
#253=ORIENTED_EDGE('',*,*,#183,.T.);
#254=ORIENTED_EDGE('',*,*,#187,.T.);
#255=ORIENTED_EDGE('',*,*,#205,.T.);
#256=ORIENTED_EDGE('',*,*,#206,.F.);
#257=ORIENTED_EDGE('',*,*,#194,.T.);
#258=ORIENTED_EDGE('',*,*,#204,.T.);
#259=ORIENTED_EDGE('',*,*,#207,.T.);
#260=ORIENTED_EDGE('',*,*,#208,.F.);
#261=ORIENTED_EDGE('',*,*,#195,.T.);
#262=ORIENTED_EDGE('',*,*,#206,.T.);
#263=ORIENTED_EDGE('',*,*,#209,.T.);
#264=ORIENTED_EDGE('',*,*,#210,.F.);
#265=ORIENTED_EDGE('',*,*,#196,.T.);
#266=ORIENTED_EDGE('',*,*,#208,.T.);
#267=ORIENTED_EDGE('',*,*,#211,.T.);
#268=ORIENTED_EDGE('',*,*,#212,.F.);
#269=ORIENTED_EDGE('',*,*,#197,.T.);
#270=ORIENTED_EDGE('',*,*,#210,.T.);
#271=ORIENTED_EDGE('',*,*,#213,.T.);
#272=ORIENTED_EDGE('',*,*,#214,.F.);
#273=ORIENTED_EDGE('',*,*,#198,.T.);
#274=ORIENTED_EDGE('',*,*,#212,.T.);
#275=ORIENTED_EDGE('',*,*,#215,.T.);
#276=ORIENTED_EDGE('',*,*,#216,.F.);
#277=ORIENTED_EDGE('',*,*,#199,.T.);
#278=ORIENTED_EDGE('',*,*,#214,.T.);
#279=ORIENTED_EDGE('',*,*,#184,.T.);
#280=ORIENTED_EDGE('',*,*,#188,.T.);
#281=ORIENTED_EDGE('',*,*,#217,.T.);
#282=ORIENTED_EDGE('',*,*,#218,.F.);
#283=ORIENTED_EDGE('',*,*,#200,.T.);
#284=ORIENTED_EDGE('',*,*,#216,.T.);
#285=ORIENTED_EDGE('',*,*,#219,.T.);
#286=ORIENTED_EDGE('',*,*,#220,.F.);
#287=ORIENTED_EDGE('',*,*,#201,.T.);
#288=ORIENTED_EDGE('',*,*,#218,.T.);
#289=ORIENTED_EDGE('',*,*,#192,.F.);
#290=ORIENTED_EDGE('',*,*,#202,.T.);
#291=ORIENTED_EDGE('',*,*,#220,.T.);
#292=ORIENTED_EDGE('',*,*,#221,.T.);
#293=ORIENTED_EDGE('',*,*,#189,.F.);
#294=ORIENTED_EDGE('',*,*,#221,.F.);
#295=ORIENTED_EDGE('',*,*,#219,.F.);
#296=ORIENTED_EDGE('',*,*,#217,.F.);
#297=ORIENTED_EDGE('',*,*,#215,.F.);
#298=ORIENTED_EDGE('',*,*,#213,.F.);
#299=ORIENTED_EDGE('',*,*,#211,.F.);
#300=ORIENTED_EDGE('',*,*,#209,.F.);
#301=ORIENTED_EDGE('',*,*,#207,.F.);
#302=ORIENTED_EDGE('',*,*,#205,.F.);
#303=ORIENTED_EDGE('',*,*,#203,.F.);
#304=PLANE('',#340);
#305=PLANE('',#347);
#306=PLANE('',#354);
#307=PLANE('',#355);
#308=PLANE('',#356);
#309=PLANE('',#357);
#310=PLANE('',#358);
#311=PLANE('',#359);
#312=PLANE('',#360);
#313=PLANE('',#361);
#314=PLANE('',#362);
#315=PLANE('',#363);
#316=PLANE('',#364);
#317=PLANE('',#365);
#318=PLANE('',#366);
#319=ADVANCED_FACE('',(#95,#85),#304,.T.);
#320=ADVANCED_FACE('',(#96,#86),#81,.F.);
#321=ADVANCED_FACE('',(#97,#87),#82,.F.);
#322=ADVANCED_FACE('',(#98,#88),#305,.T.);
#323=ADVANCED_FACE('',(#99,#89),#83,.F.);
#324=ADVANCED_FACE('',(#100,#90),#84,.F.);
#325=ADVANCED_FACE('',(#101),#306,.T.);
#326=ADVANCED_FACE('',(#102),#307,.F.);
#327=ADVANCED_FACE('',(#103,#91,#92),#308,.T.);
#328=ADVANCED_FACE('',(#104),#309,.T.);
#329=ADVANCED_FACE('',(#105),#310,.T.);
#330=ADVANCED_FACE('',(#106),#311,.T.);
#331=ADVANCED_FACE('',(#107),#312,.T.);
#332=ADVANCED_FACE('',(#108),#313,.T.);
#333=ADVANCED_FACE('',(#109,#93,#94),#314,.T.);
#334=ADVANCED_FACE('',(#110),#315,.T.);
#335=ADVANCED_FACE('',(#111),#316,.T.);
#336=ADVANCED_FACE('',(#112),#317,.T.);
#337=ADVANCED_FACE('',(#113),#318,.T.);
#338=CLOSED_SHELL('',(#319,#320,#321,#322,#323,#324,#325,#326,#327,#328,
#329,#330,#331,#332,#333,#334,#335,#336,#337));
#339=AXIS2_PLACEMENT_3D('placement',#456,#367,#368);
#340=AXIS2_PLACEMENT_3D('',#457,#369,#370);
#341=AXIS2_PLACEMENT_3D('',#459,#371,#372);
#342=AXIS2_PLACEMENT_3D('',#461,#373,#374);
#343=AXIS2_PLACEMENT_3D('',#462,#375,#376);
#344=AXIS2_PLACEMENT_3D('',#464,#377,#378);
#345=AXIS2_PLACEMENT_3D('',#465,#379,#380);
#346=AXIS2_PLACEMENT_3D('',#467,#381,#382);
#347=AXIS2_PLACEMENT_3D('',#468,#383,#384);
#348=AXIS2_PLACEMENT_3D('',#470,#385,#386);
#349=AXIS2_PLACEMENT_3D('',#472,#387,#388);
#350=AXIS2_PLACEMENT_3D('',#473,#389,#390);
#351=AXIS2_PLACEMENT_3D('',#475,#391,#392);
#352=AXIS2_PLACEMENT_3D('',#476,#393,#394);
#353=AXIS2_PLACEMENT_3D('',#478,#395,#396);
#354=AXIS2_PLACEMENT_3D('',#479,#397,#398);
#355=AXIS2_PLACEMENT_3D('',#488,#403,#404);
#356=AXIS2_PLACEMENT_3D('',#508,#415,#416);
#357=AXIS2_PLACEMENT_3D('',#512,#419,#420);
#358=AXIS2_PLACEMENT_3D('',#516,#423,#424);
#359=AXIS2_PLACEMENT_3D('',#520,#427,#428);
#360=AXIS2_PLACEMENT_3D('',#524,#431,#432);
#361=AXIS2_PLACEMENT_3D('',#528,#435,#436);
#362=AXIS2_PLACEMENT_3D('',#532,#439,#440);
#363=AXIS2_PLACEMENT_3D('',#536,#443,#444);
#364=AXIS2_PLACEMENT_3D('',#540,#447,#448);
#365=AXIS2_PLACEMENT_3D('',#544,#451,#452);
#366=AXIS2_PLACEMENT_3D('',#546,#454,#455);
#367=DIRECTION('axis',(0.,0.,1.));
#368=DIRECTION('refdir',(1.,0.,0.));
#369=DIRECTION('center_axis',(0.,1.,0.));
#370=DIRECTION('ref_axis',(1.,0.,0.));
#371=DIRECTION('center_axis',(0.,1.,0.));
#372=DIRECTION('ref_axis',(1.,0.,0.));
#373=DIRECTION('center_axis',(0.,1.,0.));
#374=DIRECTION('ref_axis',(1.,0.,0.));
#375=DIRECTION('center_axis',(0.,1.,0.));
#376=DIRECTION('ref_axis',(1.,0.,0.));
#377=DIRECTION('center_axis',(0.,-1.,0.));
#378=DIRECTION('ref_axis',(1.,0.,0.));
#379=DIRECTION('center_axis',(0.,1.,0.));
#380=DIRECTION('ref_axis',(1.,0.,0.));
#381=DIRECTION('center_axis',(0.,1.,0.));
#382=DIRECTION('ref_axis',(1.,0.,0.));
#383=DIRECTION('center_axis',(0.,1.,0.));
#384=DIRECTION('ref_axis',(1.,0.,0.));
#385=DIRECTION('center_axis',(0.,1.,0.));
#386=DIRECTION('ref_axis',(1.,0.,0.));
#387=DIRECTION('center_axis',(0.,1.,0.));
#388=DIRECTION('ref_axis',(1.,0.,0.));
#389=DIRECTION('center_axis',(0.,1.,0.));
#390=DIRECTION('ref_axis',(1.,0.,0.));
#391=DIRECTION('center_axis',(0.,-1.,0.));
#392=DIRECTION('ref_axis',(1.,0.,0.));
#393=DIRECTION('center_axis',(0.,1.,0.));
#394=DIRECTION('ref_axis',(1.,0.,0.));
#395=DIRECTION('center_axis',(0.,1.,0.));
#396=DIRECTION('ref_axis',(1.,0.,0.));
#397=DIRECTION('center_axis',(-0.707106781186535,0.70710678118656,0.));
#398=DIRECTION('ref_axis',(0.,0.,1.));
#399=DIRECTION('',(0.70710678118656,0.707106781186535,0.));
#400=DIRECTION('',(0.,0.,-1.));
#401=DIRECTION('',(-0.70710678118656,-0.707106781186535,0.));
#402=DIRECTION('',(0.,0.,1.));
#403=DIRECTION('center_axis',(0.,0.,1.));
#404=DIRECTION('ref_axis',(1.,0.,0.));
#405=DIRECTION('',(-1.,0.,0.));
#406=DIRECTION('',(0.,1.,0.));
#407=DIRECTION('',(1.,-4.93432455388964E-15,0.));
#408=DIRECTION('',(0.,-1.,0.));
#409=DIRECTION('',(1.,0.,0.));
#410=DIRECTION('',(0.,1.,0.));
#411=DIRECTION('',(1.,0.,0.));
#412=DIRECTION('',(0.,1.,0.));
#413=DIRECTION('',(1.,0.,0.));
#414=DIRECTION('',(0.,-1.,0.));
#415=DIRECTION('center_axis',(0.,1.,0.));
#416=DIRECTION('ref_axis',(0.,0.,1.));
#417=DIRECTION('',(1.,0.,0.));
#418=DIRECTION('',(0.,0.,1.));
#419=DIRECTION('center_axis',(1.,0.,0.));
#420=DIRECTION('ref_axis',(0.,0.,-1.));
#421=DIRECTION('',(0.,-1.,0.));
#422=DIRECTION('',(0.,0.,1.));
#423=DIRECTION('center_axis',(-4.93432455388964E-15,-1.,0.));
#424=DIRECTION('ref_axis',(0.,0.,-1.));
#425=DIRECTION('',(-1.,4.93432455388964E-15,0.));
#426=DIRECTION('',(0.,0.,1.));
#427=DIRECTION('center_axis',(-1.,0.,0.));
#428=DIRECTION('ref_axis',(0.,0.,1.));
#429=DIRECTION('',(0.,1.,0.));
#430=DIRECTION('',(0.,0.,1.));
#431=DIRECTION('center_axis',(0.,-1.,0.));
#432=DIRECTION('ref_axis',(0.,0.,-1.));
#433=DIRECTION('',(-1.,0.,0.));
#434=DIRECTION('',(0.,0.,1.));
#435=DIRECTION('center_axis',(1.,0.,0.));
#436=DIRECTION('ref_axis',(0.,0.,-1.));
#437=DIRECTION('',(0.,-1.,0.));
#438=DIRECTION('',(0.,0.,1.));
#439=DIRECTION('center_axis',(0.,-1.,0.));
#440=DIRECTION('ref_axis',(0.,0.,-1.));
#441=DIRECTION('',(-1.,0.,0.));
#442=DIRECTION('',(0.,0.,1.));
#443=DIRECTION('center_axis',(1.,0.,0.));
#444=DIRECTION('ref_axis',(0.,0.,-1.));
#445=DIRECTION('',(0.,-1.,0.));
#446=DIRECTION('',(0.,0.,1.));
#447=DIRECTION('center_axis',(0.,-1.,0.));
#448=DIRECTION('ref_axis',(0.,0.,-1.));
#449=DIRECTION('',(-1.,0.,0.));
#450=DIRECTION('',(0.,0.,1.));
#451=DIRECTION('center_axis',(-1.,0.,0.));
#452=DIRECTION('ref_axis',(0.,0.,1.));
#453=DIRECTION('',(0.,1.,0.));
#454=DIRECTION('center_axis',(0.,0.,1.));
#455=DIRECTION('ref_axis',(1.,0.,0.));
#456=CARTESIAN_POINT('',(0.,0.,0.));
#457=CARTESIAN_POINT('Origin',(-109.984111347116,47.1409882994481,11.));
#458=CARTESIAN_POINT('',(-105.984111347116,47.1409882994481,11.));
#459=CARTESIAN_POINT('Origin',(-109.984111347116,47.1409882994481,11.));
#460=CARTESIAN_POINT('',(-112.234111347116,47.1409882994481,11.));
#461=CARTESIAN_POINT('Origin',(-109.984111347116,47.1409882994481,11.));
#462=CARTESIAN_POINT('Origin',(-109.984111347116,49.3909882994481,11.));
#463=CARTESIAN_POINT('',(-105.984111347116,51.6409882994481,11.));
#464=CARTESIAN_POINT('Origin',(-109.984111347116,51.6409882994481,11.));
#465=CARTESIAN_POINT('Origin',(-109.984111347116,-12.7795053341775,11.));
#466=CARTESIAN_POINT('',(-112.234111347116,43.0409882994481,11.));
#467=CARTESIAN_POINT('Origin',(-109.984111347116,43.0409882994481,11.));
#468=CARTESIAN_POINT('Origin',(-109.984111347116,47.1409882994481,51.));
#469=CARTESIAN_POINT('',(-105.984111347116,47.1409882994481,51.));
#470=CARTESIAN_POINT('Origin',(-109.984111347116,47.1409882994481,51.));
#471=CARTESIAN_POINT('',(-112.234111347116,47.1409882994481,51.));
#472=CARTESIAN_POINT('Origin',(-109.984111347116,47.1409882994481,51.));
#473=CARTESIAN_POINT('Origin',(-109.984111347116,49.3909882994481,51.));
#474=CARTESIAN_POINT('',(-105.984111347116,51.6409882994481,51.));
#475=CARTESIAN_POINT('Origin',(-109.984111347116,51.6409882994481,51.));
#476=CARTESIAN_POINT('Origin',(-109.984111347116,-12.7795053341775,51.));
#477=CARTESIAN_POINT('',(-112.234111347116,43.0409882994481,51.));
#478=CARTESIAN_POINT('Origin',(-109.984111347116,43.0409882994481,51.));
#479=CARTESIAN_POINT('Origin',(-114.734111347116,51.3909882994481,0.));
#480=CARTESIAN_POINT('',(-114.984111347116,51.1409882994482,62.));
#481=CARTESIAN_POINT('',(-114.484111347116,51.6409882994481,62.));
#482=CARTESIAN_POINT('',(-113.951203183851,52.1738964627135,62.));
#483=CARTESIAN_POINT('',(-114.484111347116,51.6409882994481,0.));
#484=CARTESIAN_POINT('',(-114.484111347116,51.6409882994481,0.));
#485=CARTESIAN_POINT('',(-114.984111347116,51.1409882994482,0.));
#486=CARTESIAN_POINT('',(-113.951203183851,52.1738964627135,0.));
#487=CARTESIAN_POINT('',(-114.984111347116,51.1409882994482,0.));
#488=CARTESIAN_POINT('Origin',(-107.871866449157,47.6603760545502,0.));
#489=CARTESIAN_POINT('',(-99.984111347116,51.6409882994481,0.));
#490=CARTESIAN_POINT('',(-99.984111347116,51.6409882994481,0.));
#491=CARTESIAN_POINT('',(-99.984111347116,47.6409882994481,0.));
#492=CARTESIAN_POINT('',(-99.984111347116,47.6409882994481,0.));
#493=CARTESIAN_POINT('',(-101.784111347116,47.6409882994481,0.));
#494=CARTESIAN_POINT('',(-101.784111347116,47.6409882994481,0.));
#495=CARTESIAN_POINT('',(-101.784111347116,48.1409882994481,0.));
#496=CARTESIAN_POINT('',(-101.784111347116,48.1409882994481,0.));
#497=CARTESIAN_POINT('',(-103.984111347116,48.1409882994481,0.));
#498=CARTESIAN_POINT('',(-103.984111347116,48.1409882994481,0.));
#499=CARTESIAN_POINT('',(-103.984111347116,43.0409882994481,0.));
#500=CARTESIAN_POINT('',(-103.984111347116,43.0409882994481,0.));
#501=CARTESIAN_POINT('',(-112.984111347116,43.0409882994481,0.));
#502=CARTESIAN_POINT('',(-112.984111347116,43.0409882994481,0.));
#503=CARTESIAN_POINT('',(-112.984111347116,42.6409882994481,0.));
#504=CARTESIAN_POINT('',(-112.984111347116,42.6409882994481,0.));
#505=CARTESIAN_POINT('',(-114.984111347116,42.6409882994481,0.));
#506=CARTESIAN_POINT('',(-114.984111347116,42.6409882994481,0.));
#507=CARTESIAN_POINT('',(-114.984111347116,51.6409882994481,0.));
#508=CARTESIAN_POINT('Origin',(-114.984111347116,51.6409882994481,0.));
#509=CARTESIAN_POINT('',(-99.984111347116,51.6409882994481,62.));
#510=CARTESIAN_POINT('',(-99.984111347116,51.6409882994481,62.));
#511=CARTESIAN_POINT('',(-99.984111347116,51.6409882994481,0.));
#512=CARTESIAN_POINT('Origin',(-99.984111347116,51.6409882994481,0.));
#513=CARTESIAN_POINT('',(-99.984111347116,47.6409882994481,62.));
#514=CARTESIAN_POINT('',(-99.984111347116,47.6409882994481,62.));
#515=CARTESIAN_POINT('',(-99.984111347116,47.6409882994481,0.));
#516=CARTESIAN_POINT('Origin',(-99.984111347116,47.6409882994481,0.));
#517=CARTESIAN_POINT('',(-101.784111347116,47.6409882994481,62.));
#518=CARTESIAN_POINT('',(-101.784111347116,47.6409882994481,62.));
#519=CARTESIAN_POINT('',(-101.784111347116,47.6409882994481,0.));
#520=CARTESIAN_POINT('Origin',(-101.784111347116,47.6409882994481,0.));
#521=CARTESIAN_POINT('',(-101.784111347116,48.1409882994481,62.));
#522=CARTESIAN_POINT('',(-101.784111347116,48.1409882994481,62.));
#523=CARTESIAN_POINT('',(-101.784111347116,48.1409882994481,0.));
#524=CARTESIAN_POINT('Origin',(-101.784111347116,48.1409882994481,0.));
#525=CARTESIAN_POINT('',(-103.984111347116,48.1409882994481,62.));
#526=CARTESIAN_POINT('',(-103.984111347116,48.1409882994481,62.));
#527=CARTESIAN_POINT('',(-103.984111347116,48.1409882994481,0.));
#528=CARTESIAN_POINT('Origin',(-103.984111347116,48.1409882994481,0.));
#529=CARTESIAN_POINT('',(-103.984111347116,43.0409882994481,62.));
#530=CARTESIAN_POINT('',(-103.984111347116,43.0409882994481,62.));
#531=CARTESIAN_POINT('',(-103.984111347116,43.0409882994481,0.));
#532=CARTESIAN_POINT('Origin',(-103.984111347116,43.0409882994481,0.));
#533=CARTESIAN_POINT('',(-112.984111347116,43.0409882994481,62.));
#534=CARTESIAN_POINT('',(-112.984111347116,43.0409882994481,62.));
#535=CARTESIAN_POINT('',(-112.984111347116,43.0409882994481,0.));
#536=CARTESIAN_POINT('Origin',(-112.984111347116,43.0409882994481,0.));
#537=CARTESIAN_POINT('',(-112.984111347116,42.6409882994481,62.));
#538=CARTESIAN_POINT('',(-112.984111347116,42.6409882994481,62.));
#539=CARTESIAN_POINT('',(-112.984111347116,42.6409882994481,0.));
#540=CARTESIAN_POINT('Origin',(-112.984111347116,42.6409882994481,0.));
#541=CARTESIAN_POINT('',(-114.984111347116,42.6409882994481,62.));
#542=CARTESIAN_POINT('',(-114.984111347116,42.6409882994481,62.));
#543=CARTESIAN_POINT('',(-114.984111347116,42.6409882994481,0.));
#544=CARTESIAN_POINT('Origin',(-114.984111347116,42.6409882994481,0.));
#545=CARTESIAN_POINT('',(-114.984111347116,51.6409882994481,62.));
#546=CARTESIAN_POINT('Origin',(-107.871866449157,47.6603760545502,62.));
#547=UNCERTAINTY_MEASURE_WITH_UNIT(LENGTH_MEASURE(0.01),#551,
'DISTANCE_ACCURACY_VALUE',
'Maximum model space distance between geometric entities at asserted c
onnectivities');
#548=UNCERTAINTY_MEASURE_WITH_UNIT(LENGTH_MEASURE(1.E-6),#551,
'DISTANCE_ACCURACY_VALUE',
'Maximum model space distance between geometric entities at asserted c
onnectivities');
#549=(
GEOMETRIC_REPRESENTATION_CONTEXT(3)
GLOBAL_UNCERTAINTY_ASSIGNED_CONTEXT((#547))
GLOBAL_UNIT_ASSIGNED_CONTEXT((#551,#554,#552))
REPRESENTATION_CONTEXT('','3D')
);
#550=(
GEOMETRIC_REPRESENTATION_CONTEXT(3)
GLOBAL_UNCERTAINTY_ASSIGNED_CONTEXT((#548))
GLOBAL_UNIT_ASSIGNED_CONTEXT((#551,#554,#552))
REPRESENTATION_CONTEXT('','3D')
);
#551=(
LENGTH_UNIT()
NAMED_UNIT(*)
SI_UNIT(.MILLI.,.METRE.)
);
#552=(
NAMED_UNIT(*)
SI_UNIT($,.STERADIAN.)
SOLID_ANGLE_UNIT()
);
#553=DIMENSIONAL_EXPONENTS(0.,0.,0.,0.,0.,0.,0.);
#554=(
CONVERSION_BASED_UNIT('degree',#556)
NAMED_UNIT(#553)
PLANE_ANGLE_UNIT()
);
#555=(
NAMED_UNIT(*)
PLANE_ANGLE_UNIT()
SI_UNIT($,.RADIAN.)
);
#556=PLANE_ANGLE_MEASURE_WITH_UNIT(PLANE_ANGLE_MEASURE(0.01745329252),#555);
#557=SHAPE_DEFINITION_REPRESENTATION(#558,#559);
#558=PRODUCT_DEFINITION_SHAPE('',$,#561);
#559=SHAPE_REPRESENTATION('',(#339),#549);
#560=PRODUCT_DEFINITION_CONTEXT('part definition',#565,'design');
#561=PRODUCT_DEFINITION('CAD_48636','CAD_48636',#562,#560);
#562=PRODUCT_DEFINITION_FORMATION('',$,#567);
#563=PRODUCT_RELATED_PRODUCT_CATEGORY('CAD_48636','CAD_48636',(#567));
#564=APPLICATION_PROTOCOL_DEFINITION('international standard',
'automotive_design',2009,#565);
#565=APPLICATION_CONTEXT(
'Core Data for Automotive Mechanical Design Process');
#566=PRODUCT_CONTEXT('part definition',#565,'mechanical');
#567=PRODUCT('CAD_48636','CAD_48636',$,(#566));
#568=PRESENTATION_STYLE_ASSIGNMENT((#569));
#569=SURFACE_STYLE_USAGE(.BOTH.,#570);
#570=SURFACE_SIDE_STYLE('',(#571));
#571=SURFACE_STYLE_FILL_AREA(#572);
#572=FILL_AREA_STYLE('',(#573));
#573=FILL_AREA_STYLE_COLOUR('',#574);
#574=COLOUR_RGB('',0.847058823529412,0.83921568627451,0.83921568627451);
ENDSEC;
END-ISO-10303-21;
