ISO-10303-21;
HEADER;
/* Generated by software containing ST-Developer
 * from STEP Tools, Inc. (www.steptools.com) 
 */
/* OPTION: using custom renumber hook */

FILE_DESCRIPTION(
/* description */ ('STEP AP214'),
/* implementation_level */ '2;1');

FILE_NAME(
/* name */ '093V3060S',
/* time_stamp */ '2022-07-08T14:57:53+02:00',
/* author */ ('License CC BY-ND 4.0'),
/* organization */ ('CADENAS'),
/* preprocessor_version */ 'ST-DEVELOPER v18.102',
/* originating_system */ 'PARTsolutions',
/* authorisation */ '  ');

FILE_SCHEMA (('AUTOMOTIVE_DESIGN {1 0 10303 214 3 1 1}'));
ENDSEC;

DATA;
#10=PROPERTY_DEFINITION_REPRESENTATION(#14,#12);
#11=PROPERTY_DEFINITION_REPRESENTATION(#15,#13);
#12=REPRESENTATION('',(#16),#433);
#13=REPRESENTATION('',(#17),#433);
#14=PROPERTY_DEFINITION('pmi validation property','',#438);
#15=PROPERTY_DEFINITION('pmi validation property','',#438);
#16=VALUE_REPRESENTATION_ITEM('number of annotations',COUNT_MEASURE(0.));
#17=VALUE_REPRESENTATION_ITEM('number of views',COUNT_MEASURE(0.));
#18=SHAPE_REPRESENTATION_RELATIONSHIP('','',#261,#19);
#19=ADVANCED_BREP_SHAPE_REPRESENTATION('',(#259),#433);
#20=CONICAL_SURFACE('',#287,3.3,0.785398163397448);
#21=CONICAL_SURFACE('',#290,3.3,0.785398163397448);
#22=PLANE('',#266);
#23=PLANE('',#270);
#24=PLANE('',#274);
#25=PLANE('',#278);
#26=PLANE('',#279);
#27=PLANE('',#282);
#28=LINE('',#370,#44);
#29=LINE('',#374,#45);
#30=LINE('',#376,#46);
#31=LINE('',#378,#47);
#32=LINE('',#380,#48);
#33=LINE('',#384,#49);
#34=LINE('',#388,#50);
#35=LINE('',#390,#51);
#36=LINE('',#392,#52);
#37=LINE('',#396,#53);
#38=LINE('',#400,#54);
#39=LINE('',#402,#55);
#40=LINE('',#404,#56);
#41=LINE('',#408,#57);
#42=LINE('',#412,#58);
#43=LINE('',#413,#59);
#44=VECTOR('',#297,1000.);
#45=VECTOR('',#300,1000.);
#46=VECTOR('',#303,1000.);
#47=VECTOR('',#304,1000.);
#48=VECTOR('',#305,1000.);
#49=VECTOR('',#310,1000.);
#50=VECTOR('',#315,1000.);
#51=VECTOR('',#316,1000.);
#52=VECTOR('',#317,1000.);
#53=VECTOR('',#322,1000.);
#54=VECTOR('',#327,1000.);
#55=VECTOR('',#328,1000.);
#56=VECTOR('',#329,1000.);
#57=VECTOR('',#334,1000.);
#58=VECTOR('',#339,1000.);
#59=VECTOR('',#340,1000.);
#60=ORIENTED_EDGE('',*,*,#120,.T.);
#61=ORIENTED_EDGE('',*,*,#121,.F.);
#62=ORIENTED_EDGE('',*,*,#122,.F.);
#63=ORIENTED_EDGE('',*,*,#123,.T.);
#64=ORIENTED_EDGE('',*,*,#124,.T.);
#65=ORIENTED_EDGE('',*,*,#125,.F.);
#66=ORIENTED_EDGE('',*,*,#126,.F.);
#67=ORIENTED_EDGE('',*,*,#121,.T.);
#68=ORIENTED_EDGE('',*,*,#127,.T.);
#69=ORIENTED_EDGE('',*,*,#128,.F.);
#70=ORIENTED_EDGE('',*,*,#129,.F.);
#71=ORIENTED_EDGE('',*,*,#125,.T.);
#72=ORIENTED_EDGE('',*,*,#130,.T.);
#73=ORIENTED_EDGE('',*,*,#131,.F.);
#74=ORIENTED_EDGE('',*,*,#132,.F.);
#75=ORIENTED_EDGE('',*,*,#128,.T.);
#76=ORIENTED_EDGE('',*,*,#133,.T.);
#77=ORIENTED_EDGE('',*,*,#134,.F.);
#78=ORIENTED_EDGE('',*,*,#135,.F.);
#79=ORIENTED_EDGE('',*,*,#131,.T.);
#80=ORIENTED_EDGE('',*,*,#136,.T.);
#81=ORIENTED_EDGE('',*,*,#137,.F.);
#82=ORIENTED_EDGE('',*,*,#138,.F.);
#83=ORIENTED_EDGE('',*,*,#134,.T.);
#84=ORIENTED_EDGE('',*,*,#139,.T.);
#85=ORIENTED_EDGE('',*,*,#140,.F.);
#86=ORIENTED_EDGE('',*,*,#141,.F.);
#87=ORIENTED_EDGE('',*,*,#137,.T.);
#88=ORIENTED_EDGE('',*,*,#142,.T.);
#89=ORIENTED_EDGE('',*,*,#123,.F.);
#90=ORIENTED_EDGE('',*,*,#143,.F.);
#91=ORIENTED_EDGE('',*,*,#140,.T.);
#92=ORIENTED_EDGE('',*,*,#144,.F.);
#93=ORIENTED_EDGE('',*,*,#145,.F.);
#94=ORIENTED_EDGE('',*,*,#122,.T.);
#95=ORIENTED_EDGE('',*,*,#126,.T.);
#96=ORIENTED_EDGE('',*,*,#129,.T.);
#97=ORIENTED_EDGE('',*,*,#132,.T.);
#98=ORIENTED_EDGE('',*,*,#135,.T.);
#99=ORIENTED_EDGE('',*,*,#138,.T.);
#100=ORIENTED_EDGE('',*,*,#141,.T.);
#101=ORIENTED_EDGE('',*,*,#143,.T.);
#102=ORIENTED_EDGE('',*,*,#146,.T.);
#103=ORIENTED_EDGE('',*,*,#147,.T.);
#104=ORIENTED_EDGE('',*,*,#120,.F.);
#105=ORIENTED_EDGE('',*,*,#142,.F.);
#106=ORIENTED_EDGE('',*,*,#139,.F.);
#107=ORIENTED_EDGE('',*,*,#136,.F.);
#108=ORIENTED_EDGE('',*,*,#133,.F.);
#109=ORIENTED_EDGE('',*,*,#130,.F.);
#110=ORIENTED_EDGE('',*,*,#127,.F.);
#111=ORIENTED_EDGE('',*,*,#124,.F.);
#112=ORIENTED_EDGE('',*,*,#148,.T.);
#113=ORIENTED_EDGE('',*,*,#147,.F.);
#114=ORIENTED_EDGE('',*,*,#145,.T.);
#115=ORIENTED_EDGE('',*,*,#148,.F.);
#116=ORIENTED_EDGE('',*,*,#149,.T.);
#117=ORIENTED_EDGE('',*,*,#146,.F.);
#118=ORIENTED_EDGE('',*,*,#144,.T.);
#119=ORIENTED_EDGE('',*,*,#149,.F.);
#120=EDGE_CURVE('',#150,#151,#172,.T.);
#121=EDGE_CURVE('',#152,#151,#28,.T.);
#122=EDGE_CURVE('',#153,#152,#173,.T.);
#123=EDGE_CURVE('',#153,#150,#29,.T.);
#124=EDGE_CURVE('',#151,#154,#30,.T.);
#125=EDGE_CURVE('',#155,#154,#31,.T.);
#126=EDGE_CURVE('',#152,#155,#32,.T.);
#127=EDGE_CURVE('',#154,#156,#174,.T.);
#128=EDGE_CURVE('',#157,#156,#33,.T.);
#129=EDGE_CURVE('',#155,#157,#175,.T.);
#130=EDGE_CURVE('',#156,#158,#34,.T.);
#131=EDGE_CURVE('',#159,#158,#35,.T.);
#132=EDGE_CURVE('',#157,#159,#36,.T.);
#133=EDGE_CURVE('',#158,#160,#176,.T.);
#134=EDGE_CURVE('',#161,#160,#37,.T.);
#135=EDGE_CURVE('',#159,#161,#177,.T.);
#136=EDGE_CURVE('',#160,#162,#38,.T.);
#137=EDGE_CURVE('',#163,#162,#39,.T.);
#138=EDGE_CURVE('',#161,#163,#40,.T.);
#139=EDGE_CURVE('',#162,#164,#178,.T.);
#140=EDGE_CURVE('',#165,#164,#41,.T.);
#141=EDGE_CURVE('',#163,#165,#179,.T.);
#142=EDGE_CURVE('',#164,#150,#42,.T.);
#143=EDGE_CURVE('',#165,#153,#43,.T.);
#144=EDGE_CURVE('',#166,#166,#180,.T.);
#145=EDGE_CURVE('',#167,#167,#181,.T.);
#146=EDGE_CURVE('',#168,#168,#182,.T.);
#147=EDGE_CURVE('',#169,#169,#183,.T.);
#148=EDGE_CURVE('',#170,#170,#184,.T.);
#149=EDGE_CURVE('',#171,#171,#185,.T.);
#150=VERTEX_POINT('',#368);
#151=VERTEX_POINT('',#369);
#152=VERTEX_POINT('',#371);
#153=VERTEX_POINT('',#373);
#154=VERTEX_POINT('',#377);
#155=VERTEX_POINT('',#379);
#156=VERTEX_POINT('',#383);
#157=VERTEX_POINT('',#385);
#158=VERTEX_POINT('',#389);
#159=VERTEX_POINT('',#391);
#160=VERTEX_POINT('',#395);
#161=VERTEX_POINT('',#397);
#162=VERTEX_POINT('',#401);
#163=VERTEX_POINT('',#403);
#164=VERTEX_POINT('',#407);
#165=VERTEX_POINT('',#409);
#166=VERTEX_POINT('',#416);
#167=VERTEX_POINT('',#418);
#168=VERTEX_POINT('',#421);
#169=VERTEX_POINT('',#423);
#170=VERTEX_POINT('',#426);
#171=VERTEX_POINT('',#430);
#172=CIRCLE('',#264,3.);
#173=CIRCLE('',#265,3.);
#174=CIRCLE('',#268,3.);
#175=CIRCLE('',#269,3.);
#176=CIRCLE('',#272,2.99999999999999);
#177=CIRCLE('',#273,2.99999999999999);
#178=CIRCLE('',#276,2.99999999999998);
#179=CIRCLE('',#277,2.99999999999998);
#180=CIRCLE('',#280,6.2);
#181=CIRCLE('',#281,6.2);
#182=CIRCLE('',#283,3.3);
#183=CIRCLE('',#284,3.3);
#184=CIRCLE('',#286,3.3);
#185=CIRCLE('',#289,3.3);
#186=EDGE_LOOP('',(#60,#61,#62,#63));
#187=EDGE_LOOP('',(#64,#65,#66,#67));
#188=EDGE_LOOP('',(#68,#69,#70,#71));
#189=EDGE_LOOP('',(#72,#73,#74,#75));
#190=EDGE_LOOP('',(#76,#77,#78,#79));
#191=EDGE_LOOP('',(#80,#81,#82,#83));
#192=EDGE_LOOP('',(#84,#85,#86,#87));
#193=EDGE_LOOP('',(#88,#89,#90,#91));
#194=EDGE_LOOP('',(#92));
#195=EDGE_LOOP('',(#93));
#196=EDGE_LOOP('',(#94,#95,#96,#97,#98,#99,#100,#101));
#197=EDGE_LOOP('',(#102));
#198=EDGE_LOOP('',(#103));
#199=EDGE_LOOP('',(#104,#105,#106,#107,#108,#109,#110,#111));
#200=EDGE_LOOP('',(#112));
#201=EDGE_LOOP('',(#113));
#202=EDGE_LOOP('',(#114));
#203=EDGE_LOOP('',(#115));
#204=EDGE_LOOP('',(#116));
#205=EDGE_LOOP('',(#117));
#206=EDGE_LOOP('',(#118));
#207=EDGE_LOOP('',(#119));
#208=FACE_BOUND('',#186,.T.);
#209=FACE_BOUND('',#187,.T.);
#210=FACE_BOUND('',#188,.T.);
#211=FACE_BOUND('',#189,.T.);
#212=FACE_BOUND('',#190,.T.);
#213=FACE_BOUND('',#191,.T.);
#214=FACE_BOUND('',#192,.T.);
#215=FACE_BOUND('',#193,.T.);
#216=FACE_BOUND('',#194,.T.);
#217=FACE_BOUND('',#195,.T.);
#218=FACE_BOUND('',#196,.T.);
#219=FACE_BOUND('',#197,.T.);
#220=FACE_BOUND('',#198,.T.);
#221=FACE_BOUND('',#199,.T.);
#222=FACE_BOUND('',#200,.T.);
#223=FACE_BOUND('',#201,.T.);
#224=FACE_BOUND('',#202,.T.);
#225=FACE_BOUND('',#203,.T.);
#226=FACE_BOUND('',#204,.T.);
#227=FACE_BOUND('',#205,.T.);
#228=FACE_BOUND('',#206,.T.);
#229=FACE_BOUND('',#207,.T.);
#230=CYLINDRICAL_SURFACE('',#263,3.);
#231=CYLINDRICAL_SURFACE('',#267,3.);
#232=CYLINDRICAL_SURFACE('',#271,2.99999999999999);
#233=CYLINDRICAL_SURFACE('',#275,2.99999999999998);
#234=CYLINDRICAL_SURFACE('',#285,3.3);
#235=CYLINDRICAL_SURFACE('',#288,3.3);
#236=ADVANCED_FACE('',(#208),#230,.T.);
#237=ADVANCED_FACE('',(#209),#22,.F.);
#238=ADVANCED_FACE('',(#210),#231,.T.);
#239=ADVANCED_FACE('',(#211),#23,.F.);
#240=ADVANCED_FACE('',(#212),#232,.T.);
#241=ADVANCED_FACE('',(#213),#24,.F.);
#242=ADVANCED_FACE('',(#214),#233,.T.);
#243=ADVANCED_FACE('',(#215),#25,.F.);
#244=ADVANCED_FACE('',(#216,#217,#218),#26,.T.);
#245=ADVANCED_FACE('',(#219,#220,#221),#27,.F.);
#246=ADVANCED_FACE('',(#222,#223),#234,.F.);
#247=ADVANCED_FACE('',(#224,#225),#20,.F.);
#248=ADVANCED_FACE('',(#226,#227),#235,.F.);
#249=ADVANCED_FACE('',(#228,#229),#21,.F.);
#250=CLOSED_SHELL('',(#236,#237,#238,#239,#240,#241,#242,#243,#244,#245,
#246,#247,#248,#249));
#251=STYLED_ITEM('',(#252),#259);
#252=PRESENTATION_STYLE_ASSIGNMENT((#253));
#253=SURFACE_STYLE_USAGE(.BOTH.,#254);
#254=SURFACE_SIDE_STYLE('',(#255));
#255=SURFACE_STYLE_FILL_AREA(#256);
#256=FILL_AREA_STYLE('',(#257));
#257=FILL_AREA_STYLE_COLOUR('',#258);
#258=COLOUR_RGB('',0.689999997615814,0.689999997615814,0.689999997615814);
#259=MANIFOLD_SOLID_BREP('093V3060S',#250);
#260=SHAPE_DEFINITION_REPRESENTATION(#438,#261);
#261=SHAPE_REPRESENTATION('093V3060S',(#262),#433);
#262=AXIS2_PLACEMENT_3D('',#365,#291,#292);
#263=AXIS2_PLACEMENT_3D('',#366,#293,#294);
#264=AXIS2_PLACEMENT_3D('',#367,#295,#296);
#265=AXIS2_PLACEMENT_3D('',#372,#298,#299);
#266=AXIS2_PLACEMENT_3D('',#375,#301,#302);
#267=AXIS2_PLACEMENT_3D('',#381,#306,#307);
#268=AXIS2_PLACEMENT_3D('',#382,#308,#309);
#269=AXIS2_PLACEMENT_3D('',#386,#311,#312);
#270=AXIS2_PLACEMENT_3D('',#387,#313,#314);
#271=AXIS2_PLACEMENT_3D('',#393,#318,#319);
#272=AXIS2_PLACEMENT_3D('',#394,#320,#321);
#273=AXIS2_PLACEMENT_3D('',#398,#323,#324);
#274=AXIS2_PLACEMENT_3D('',#399,#325,#326);
#275=AXIS2_PLACEMENT_3D('',#405,#330,#331);
#276=AXIS2_PLACEMENT_3D('',#406,#332,#333);
#277=AXIS2_PLACEMENT_3D('',#410,#335,#336);
#278=AXIS2_PLACEMENT_3D('',#411,#337,#338);
#279=AXIS2_PLACEMENT_3D('',#414,#341,#342);
#280=AXIS2_PLACEMENT_3D('',#415,#343,#344);
#281=AXIS2_PLACEMENT_3D('',#417,#345,#346);
#282=AXIS2_PLACEMENT_3D('',#419,#347,#348);
#283=AXIS2_PLACEMENT_3D('',#420,#349,#350);
#284=AXIS2_PLACEMENT_3D('',#422,#351,#352);
#285=AXIS2_PLACEMENT_3D('',#424,#353,#354);
#286=AXIS2_PLACEMENT_3D('',#425,#355,#356);
#287=AXIS2_PLACEMENT_3D('',#427,#357,#358);
#288=AXIS2_PLACEMENT_3D('',#428,#359,#360);
#289=AXIS2_PLACEMENT_3D('',#429,#361,#362);
#290=AXIS2_PLACEMENT_3D('',#431,#363,#364);
#291=DIRECTION('',(0.,0.,1.));
#292=DIRECTION('',(1.,0.,0.));
#293=DIRECTION('',(0.,0.,-1.));
#294=DIRECTION('',(-1.,0.,0.));
#295=DIRECTION('',(0.,0.,1.));
#296=DIRECTION('',(1.,0.,0.));
#297=DIRECTION('',(0.,0.,-1.));
#298=DIRECTION('',(0.,0.,1.));
#299=DIRECTION('',(1.,0.,0.));
#300=DIRECTION('',(0.,0.,-1.));
#301=DIRECTION('',(1.,0.,0.));
#302=DIRECTION('',(0.,0.,-1.));
#303=DIRECTION('',(0.,-1.,0.));
#304=DIRECTION('',(0.,0.,-1.));
#305=DIRECTION('',(0.,-1.,0.));
#306=DIRECTION('',(0.,0.,-1.));
#307=DIRECTION('',(-1.,0.,0.));
#308=DIRECTION('',(0.,0.,1.));
#309=DIRECTION('',(1.,0.,0.));
#310=DIRECTION('',(0.,0.,-1.));
#311=DIRECTION('',(0.,0.,1.));
#312=DIRECTION('',(1.,0.,0.));
#313=DIRECTION('',(0.,1.,0.));
#314=DIRECTION('',(0.,0.,1.));
#315=DIRECTION('',(1.,0.,0.));
#316=DIRECTION('',(0.,0.,-1.));
#317=DIRECTION('',(1.,0.,0.));
#318=DIRECTION('',(0.,0.,-1.));
#319=DIRECTION('',(-1.,0.,0.));
#320=DIRECTION('',(0.,0.,1.));
#321=DIRECTION('',(1.,0.,0.));
#322=DIRECTION('',(0.,0.,-1.));
#323=DIRECTION('',(0.,0.,1.));
#324=DIRECTION('',(1.,0.,0.));
#325=DIRECTION('',(-1.,0.,0.));
#326=DIRECTION('',(0.,0.,1.));
#327=DIRECTION('',(0.,1.,0.));
#328=DIRECTION('',(0.,0.,-1.));
#329=DIRECTION('',(0.,1.,0.));
#330=DIRECTION('',(0.,0.,-1.));
#331=DIRECTION('',(-1.,0.,0.));
#332=DIRECTION('',(0.,0.,1.));
#333=DIRECTION('',(1.,0.,0.));
#334=DIRECTION('',(0.,0.,-1.));
#335=DIRECTION('',(0.,0.,1.));
#336=DIRECTION('',(1.,0.,0.));
#337=DIRECTION('',(0.,-1.,0.));
#338=DIRECTION('',(0.,0.,-1.));
#339=DIRECTION('',(-1.,0.,0.));
#340=DIRECTION('',(-1.,0.,0.));
#341=DIRECTION('',(0.,0.,1.));
#342=DIRECTION('',(1.,0.,0.));
#343=DIRECTION('',(0.,0.,1.));
#344=DIRECTION('',(1.,0.,0.));
#345=DIRECTION('',(0.,0.,1.));
#346=DIRECTION('',(1.,0.,0.));
#347=DIRECTION('',(0.,0.,1.));
#348=DIRECTION('',(1.,0.,0.));
#349=DIRECTION('',(0.,0.,1.));
#350=DIRECTION('',(1.,0.,0.));
#351=DIRECTION('',(0.,0.,1.));
#352=DIRECTION('',(1.,0.,0.));
#353=DIRECTION('',(0.,0.,1.));
#354=DIRECTION('',(1.,0.,0.));
#355=DIRECTION('',(0.,0.,1.));
#356=DIRECTION('',(1.,0.,0.));
#357=DIRECTION('',(0.,0.,1.));
#358=DIRECTION('',(1.,0.,0.));
#359=DIRECTION('',(0.,0.,1.));
#360=DIRECTION('',(1.,0.,0.));
#361=DIRECTION('',(0.,0.,1.));
#362=DIRECTION('',(1.,0.,0.));
#363=DIRECTION('',(0.,0.,1.));
#364=DIRECTION('',(1.,0.,0.));
#365=CARTESIAN_POINT('',(0.,0.,0.));
#366=CARTESIAN_POINT('',(3.,12.,3.));
#367=CARTESIAN_POINT('',(3.,12.,0.));
#368=CARTESIAN_POINT('',(3.,15.,0.));
#369=CARTESIAN_POINT('',(0.,12.,0.));
#370=CARTESIAN_POINT('',(0.,12.,3.));
#371=CARTESIAN_POINT('',(0.,12.,3.));
#372=CARTESIAN_POINT('',(3.,12.,3.));
#373=CARTESIAN_POINT('',(3.,15.,3.));
#374=CARTESIAN_POINT('',(3.,15.,3.));
#375=CARTESIAN_POINT('',(0.,12.,3.));
#376=CARTESIAN_POINT('',(0.,12.,0.));
#377=CARTESIAN_POINT('',(0.,-12.,0.));
#378=CARTESIAN_POINT('',(0.,-12.,3.));
#379=CARTESIAN_POINT('',(0.,-12.,3.));
#380=CARTESIAN_POINT('',(0.,12.,3.));
#381=CARTESIAN_POINT('',(3.,-12.,3.));
#382=CARTESIAN_POINT('',(3.,-12.,0.));
#383=CARTESIAN_POINT('',(3.,-15.,0.));
#384=CARTESIAN_POINT('',(3.,-15.,3.));
#385=CARTESIAN_POINT('',(3.,-15.,3.));
#386=CARTESIAN_POINT('',(3.,-12.,3.));
#387=CARTESIAN_POINT('',(3.,-15.,3.));
#388=CARTESIAN_POINT('',(3.,-15.,0.));
#389=CARTESIAN_POINT('',(57.,-15.,0.));
#390=CARTESIAN_POINT('',(57.,-15.,3.));
#391=CARTESIAN_POINT('',(57.,-15.,3.));
#392=CARTESIAN_POINT('',(3.,-15.,3.));
#393=CARTESIAN_POINT('',(57.,-12.,3.));
#394=CARTESIAN_POINT('',(57.,-12.,0.));
#395=CARTESIAN_POINT('',(60.,-12.,0.));
#396=CARTESIAN_POINT('',(60.,-12.,3.));
#397=CARTESIAN_POINT('',(60.,-12.,3.));
#398=CARTESIAN_POINT('',(57.,-12.,3.));
#399=CARTESIAN_POINT('',(60.,-12.,3.));
#400=CARTESIAN_POINT('',(60.,-12.,0.));
#401=CARTESIAN_POINT('',(60.,12.,0.));
#402=CARTESIAN_POINT('',(60.,12.,3.));
#403=CARTESIAN_POINT('',(60.,12.,3.));
#404=CARTESIAN_POINT('',(60.,-12.,3.));
#405=CARTESIAN_POINT('',(57.,12.,3.));
#406=CARTESIAN_POINT('',(57.,12.,0.));
#407=CARTESIAN_POINT('',(57.,15.,0.));
#408=CARTESIAN_POINT('',(57.,15.,3.));
#409=CARTESIAN_POINT('',(57.,15.,3.));
#410=CARTESIAN_POINT('',(57.,12.,3.));
#411=CARTESIAN_POINT('',(57.,15.,3.));
#412=CARTESIAN_POINT('',(57.,15.,0.));
#413=CARTESIAN_POINT('',(57.,15.,3.));
#414=CARTESIAN_POINT('',(3.,12.,3.));
#415=CARTESIAN_POINT('',(45.,0.,3.));
#416=CARTESIAN_POINT('',(51.2,0.,3.));
#417=CARTESIAN_POINT('',(15.,0.,3.));
#418=CARTESIAN_POINT('',(21.2,0.,3.));
#419=CARTESIAN_POINT('',(3.,12.,0.));
#420=CARTESIAN_POINT('',(45.,0.,0.));
#421=CARTESIAN_POINT('',(48.3,0.,0.));
#422=CARTESIAN_POINT('',(15.,0.,0.));
#423=CARTESIAN_POINT('',(18.3,0.,0.));
#424=CARTESIAN_POINT('',(15.,0.,3.));
#425=CARTESIAN_POINT('',(15.,0.,0.0999999999999998));
#426=CARTESIAN_POINT('',(18.3,0.,0.0999999999999998));
#427=CARTESIAN_POINT('',(15.,0.,0.0999999999999998));
#428=CARTESIAN_POINT('',(45.,0.,3.));
#429=CARTESIAN_POINT('',(45.,0.,0.0999999999999929));
#430=CARTESIAN_POINT('',(48.3,0.,0.0999999999999929));
#431=CARTESIAN_POINT('',(45.,0.,0.0999999999999929));
#432=MECHANICAL_DESIGN_GEOMETRIC_PRESENTATION_REPRESENTATION('',(#251),
#433);
#433=(
GEOMETRIC_REPRESENTATION_CONTEXT(3)
GLOBAL_UNCERTAINTY_ASSIGNED_CONTEXT((#434))
GLOBAL_UNIT_ASSIGNED_CONTEXT((#437,#436,#435))
REPRESENTATION_CONTEXT('093V3060S','TOP_LEVEL_ASSEMBLY_PART')
);
#434=UNCERTAINTY_MEASURE_WITH_UNIT(LENGTH_MEASURE(0.005),#437,
'DISTANCE_ACCURACY_VALUE','Maximum Tolerance applied to model');
#435=(
NAMED_UNIT(*)
SI_UNIT($,.STERADIAN.)
SOLID_ANGLE_UNIT()
);
#436=(
NAMED_UNIT(*)
PLANE_ANGLE_UNIT()
SI_UNIT($,.RADIAN.)
);
#437=(
LENGTH_UNIT()
NAMED_UNIT(*)
SI_UNIT(.MILLI.,.METRE.)
);
#438=PRODUCT_DEFINITION_SHAPE('','',#439);
#439=PRODUCT_DEFINITION('','',#441,#440);
#440=PRODUCT_DEFINITION_CONTEXT('',#447,'design');
#441=PRODUCT_DEFINITION_FORMATION_WITH_SPECIFIED_SOURCE('','',#443,
 .NOT_KNOWN.);
#442=PRODUCT_RELATED_PRODUCT_CATEGORY('','',(#443));
#443=PRODUCT('093V3060S','093V3060S','093V3060S',(#445));
#444=PRODUCT_CATEGORY('','');
#445=PRODUCT_CONTEXT('',#447,'mechanical');
#446=APPLICATION_PROTOCOL_DEFINITION('international standard',
'automotive_design',2010,#447);
#447=APPLICATION_CONTEXT(
'core data for automotive mechanical design processes');
ENDSEC;
END-ISO-10303-21;
