ISO-10303-21;
HEADER;
/* Generated by software containing ST-Developer
 * from STEP Tools, Inc. (www.steptools.com) 
 */

FILE_DESCRIPTION(
/* description */ ('Square Nut'),
/* implementation_level */ '2;1');

FILE_NAME(
/* name */ 
'X:\\VIRI ZA WEB\\CAD DATOTEKE\\LINEARNE ENOTE UNIMOTION\\DODATNA OPRE
MA ZA LINEARNE ENOTE\\POVEZOVALNI ELEMENTI\\MATICE\\MATICA KVADRATNA M
5 DIN557\\izvoz\\CAD_40769.stp',
/* time_stamp */ '2016-04-16T08:49:44+02:00',
/* author */ ('Hypex'),
/* organization */ ('Hypex'),
/* preprocessor_version */ 'ST-DEVELOPER v16.1',
/* originating_system */ 'Autodesk Inventor 2016',
/* authorisation */ '');

FILE_SCHEMA (('AUTOMOTIVE_DESIGN { 1 0 10303 214 3 1 1 }'));
ENDSEC;

DATA;
#10=MECHANICAL_DESIGN_GEOMETRIC_PRESENTATION_REPRESENTATION('',(#13),#345);
#11=SHAPE_REPRESENTATION_RELATIONSHIP('SRR','None',#354,#12);
#12=ADVANCED_BREP_SHAPE_REPRESENTATION('',(#14),#344);
#13=STYLED_ITEM('',(#363),#14);
#14=MANIFOLD_SOLID_BREP('Solid1',#197);
#15=(
BOUNDED_CURVE()
B_SPLINE_CURVE(2,(#304,#305,#306),.UNSPECIFIED.,.F.,.F.)
B_SPLINE_CURVE_WITH_KNOTS((3,3),(0.413278971707601,0.826557943415201),
 .UNSPECIFIED.)
CURVE()
GEOMETRIC_REPRESENTATION_ITEM()
RATIONAL_B_SPLINE_CURVE((1.,1.09868411346781,1.))
REPRESENTATION_ITEM('')
);
#16=(
BOUNDED_CURVE()
B_SPLINE_CURVE(2,(#307,#308,#309),.UNSPECIFIED.,.F.,.F.)
B_SPLINE_CURVE_WITH_KNOTS((3,3),(0.,0.4132789717076),.UNSPECIFIED.)
CURVE()
GEOMETRIC_REPRESENTATION_ITEM()
RATIONAL_B_SPLINE_CURVE((1.,1.09868411346781,1.))
REPRESENTATION_ITEM('')
);
#17=(
BOUNDED_CURVE()
B_SPLINE_CURVE(2,(#312,#313,#314),.UNSPECIFIED.,.F.,.F.)
B_SPLINE_CURVE_WITH_KNOTS((3,3),(0.,0.4132789717076),.UNSPECIFIED.)
CURVE()
GEOMETRIC_REPRESENTATION_ITEM()
RATIONAL_B_SPLINE_CURVE((1.,1.09868411346781,1.))
REPRESENTATION_ITEM('')
);
#18=(
BOUNDED_CURVE()
B_SPLINE_CURVE(2,(#315,#316,#317),.UNSPECIFIED.,.F.,.F.)
B_SPLINE_CURVE_WITH_KNOTS((3,3),(0.4132789717076,0.826557943415201),
 .UNSPECIFIED.)
CURVE()
GEOMETRIC_REPRESENTATION_ITEM()
RATIONAL_B_SPLINE_CURVE((1.,1.09868411346781,1.))
REPRESENTATION_ITEM('')
);
#19=(
BOUNDED_CURVE()
B_SPLINE_CURVE(2,(#320,#321,#322),.UNSPECIFIED.,.F.,.F.)
B_SPLINE_CURVE_WITH_KNOTS((3,3),(0.413278971707601,0.826557943415201),
 .UNSPECIFIED.)
CURVE()
GEOMETRIC_REPRESENTATION_ITEM()
RATIONAL_B_SPLINE_CURVE((1.,1.09868411346781,1.))
REPRESENTATION_ITEM('')
);
#20=(
BOUNDED_CURVE()
B_SPLINE_CURVE(2,(#323,#324,#325),.UNSPECIFIED.,.F.,.F.)
B_SPLINE_CURVE_WITH_KNOTS((3,3),(0.,0.413278971707601),.UNSPECIFIED.)
CURVE()
GEOMETRIC_REPRESENTATION_ITEM()
RATIONAL_B_SPLINE_CURVE((1.,1.09868411346781,1.))
REPRESENTATION_ITEM('')
);
#21=(
BOUNDED_CURVE()
B_SPLINE_CURVE(2,(#328,#329,#330),.UNSPECIFIED.,.F.,.F.)
B_SPLINE_CURVE_WITH_KNOTS((3,3),(0.4132789717076,0.826557943415201),
 .UNSPECIFIED.)
CURVE()
GEOMETRIC_REPRESENTATION_ITEM()
RATIONAL_B_SPLINE_CURVE((1.,1.0986841134678,1.))
REPRESENTATION_ITEM('')
);
#22=(
BOUNDED_CURVE()
B_SPLINE_CURVE(2,(#331,#332,#333),.UNSPECIFIED.,.F.,.F.)
B_SPLINE_CURVE_WITH_KNOTS((3,3),(0.,0.413278971707601),.UNSPECIFIED.)
CURVE()
GEOMETRIC_REPRESENTATION_ITEM()
RATIONAL_B_SPLINE_CURVE((1.,1.0986841134678,1.))
REPRESENTATION_ITEM('')
);
#23=LINE('',#296,#31);
#24=LINE('',#298,#32);
#25=LINE('',#300,#33);
#26=LINE('',#301,#34);
#27=LINE('',#335,#35);
#28=LINE('',#336,#36);
#29=LINE('',#338,#37);
#30=LINE('',#340,#38);
#31=VECTOR('',#248,8.);
#32=VECTOR('',#249,8.);
#33=VECTOR('',#250,8.);
#34=VECTOR('',#251,8.);
#35=VECTOR('',#262,3.0434147530476);
#36=VECTOR('',#263,3.0434147530476);
#37=VECTOR('',#266,3.0434147530476);
#38=VECTOR('',#269,3.0434147530476);
#39=PLANE('',#204);
#40=PLANE('',#211);
#41=PLANE('',#216);
#42=PLANE('',#217);
#43=PLANE('',#218);
#44=PLANE('',#219);
#45=CYLINDRICAL_SURFACE('',#202,2.067);
#46=FACE_BOUND('',#65,.T.);
#47=FACE_BOUND('',#67,.T.);
#48=FACE_BOUND('',#69,.T.);
#49=FACE_BOUND('',#71,.T.);
#50=FACE_BOUND('',#73,.T.);
#51=FACE_OUTER_BOUND('',#64,.T.);
#52=FACE_OUTER_BOUND('',#66,.T.);
#53=FACE_OUTER_BOUND('',#68,.T.);
#54=FACE_OUTER_BOUND('',#70,.T.);
#55=FACE_OUTER_BOUND('',#72,.T.);
#56=FACE_OUTER_BOUND('',#74,.T.);
#57=FACE_OUTER_BOUND('',#75,.T.);
#58=FACE_OUTER_BOUND('',#76,.T.);
#59=FACE_OUTER_BOUND('',#77,.T.);
#60=FACE_OUTER_BOUND('',#78,.T.);
#61=FACE_OUTER_BOUND('',#79,.T.);
#62=FACE_OUTER_BOUND('',#80,.T.);
#63=FACE_OUTER_BOUND('',#81,.T.);
#64=EDGE_LOOP('',(#130));
#65=EDGE_LOOP('',(#131));
#66=EDGE_LOOP('',(#132));
#67=EDGE_LOOP('',(#133));
#68=EDGE_LOOP('',(#134,#135,#136,#137));
#69=EDGE_LOOP('',(#138));
#70=EDGE_LOOP('',(#139));
#71=EDGE_LOOP('',(#140));
#72=EDGE_LOOP('',(#141,#142,#143,#144));
#73=EDGE_LOOP('',(#145));
#74=EDGE_LOOP('',(#146,#147,#148));
#75=EDGE_LOOP('',(#149,#150,#151));
#76=EDGE_LOOP('',(#152,#153,#154));
#77=EDGE_LOOP('',(#155,#156,#157));
#78=EDGE_LOOP('',(#158,#159,#160,#161,#162));
#79=EDGE_LOOP('',(#163,#164,#165,#166,#167));
#80=EDGE_LOOP('',(#168,#169,#170,#171,#172));
#81=EDGE_LOOP('',(#173,#174,#175,#176,#177));
#82=CIRCLE('',#200,2.067);
#83=CIRCLE('',#201,2.50001270189222);
#84=CIRCLE('',#203,2.067);
#85=CIRCLE('',#205,4.);
#86=CIRCLE('',#206,4.);
#87=CIRCLE('',#207,4.);
#88=CIRCLE('',#208,4.);
#89=CIRCLE('',#210,2.50001270189222);
#90=VERTEX_POINT('',#274);
#91=VERTEX_POINT('',#276);
#92=VERTEX_POINT('',#279);
#93=VERTEX_POINT('',#282);
#94=VERTEX_POINT('',#283);
#95=VERTEX_POINT('',#285);
#96=VERTEX_POINT('',#287);
#97=VERTEX_POINT('',#291);
#98=VERTEX_POINT('',#294);
#99=VERTEX_POINT('',#295);
#100=VERTEX_POINT('',#297);
#101=VERTEX_POINT('',#299);
#102=VERTEX_POINT('',#303);
#103=VERTEX_POINT('',#311);
#104=VERTEX_POINT('',#319);
#105=VERTEX_POINT('',#327);
#106=EDGE_CURVE('',#90,#90,#82,.T.);
#107=EDGE_CURVE('',#91,#91,#83,.T.);
#108=EDGE_CURVE('',#92,#92,#84,.T.);
#109=EDGE_CURVE('',#93,#94,#85,.T.);
#110=EDGE_CURVE('',#94,#95,#86,.T.);
#111=EDGE_CURVE('',#95,#96,#87,.T.);
#112=EDGE_CURVE('',#96,#93,#88,.T.);
#113=EDGE_CURVE('',#97,#97,#89,.T.);
#114=EDGE_CURVE('',#98,#99,#23,.T.);
#115=EDGE_CURVE('',#99,#100,#24,.T.);
#116=EDGE_CURVE('',#100,#101,#25,.T.);
#117=EDGE_CURVE('',#101,#98,#26,.T.);
#118=EDGE_CURVE('',#94,#102,#15,.T.);
#119=EDGE_CURVE('',#102,#93,#16,.T.);
#120=EDGE_CURVE('',#103,#96,#17,.T.);
#121=EDGE_CURVE('',#93,#103,#18,.T.);
#122=EDGE_CURVE('',#95,#104,#19,.T.);
#123=EDGE_CURVE('',#104,#94,#20,.T.);
#124=EDGE_CURVE('',#96,#105,#21,.T.);
#125=EDGE_CURVE('',#105,#95,#22,.T.);
#126=EDGE_CURVE('',#98,#104,#27,.T.);
#127=EDGE_CURVE('',#101,#105,#28,.T.);
#128=EDGE_CURVE('',#99,#102,#29,.T.);
#129=EDGE_CURVE('',#100,#103,#30,.T.);
#130=ORIENTED_EDGE('',*,*,#106,.T.);
#131=ORIENTED_EDGE('',*,*,#107,.T.);
#132=ORIENTED_EDGE('',*,*,#108,.F.);
#133=ORIENTED_EDGE('',*,*,#106,.F.);
#134=ORIENTED_EDGE('',*,*,#109,.T.);
#135=ORIENTED_EDGE('',*,*,#110,.T.);
#136=ORIENTED_EDGE('',*,*,#111,.T.);
#137=ORIENTED_EDGE('',*,*,#112,.T.);
#138=ORIENTED_EDGE('',*,*,#107,.F.);
#139=ORIENTED_EDGE('',*,*,#108,.T.);
#140=ORIENTED_EDGE('',*,*,#113,.T.);
#141=ORIENTED_EDGE('',*,*,#114,.T.);
#142=ORIENTED_EDGE('',*,*,#115,.T.);
#143=ORIENTED_EDGE('',*,*,#116,.T.);
#144=ORIENTED_EDGE('',*,*,#117,.T.);
#145=ORIENTED_EDGE('',*,*,#113,.F.);
#146=ORIENTED_EDGE('',*,*,#118,.F.);
#147=ORIENTED_EDGE('',*,*,#109,.F.);
#148=ORIENTED_EDGE('',*,*,#119,.F.);
#149=ORIENTED_EDGE('',*,*,#120,.F.);
#150=ORIENTED_EDGE('',*,*,#121,.F.);
#151=ORIENTED_EDGE('',*,*,#112,.F.);
#152=ORIENTED_EDGE('',*,*,#122,.F.);
#153=ORIENTED_EDGE('',*,*,#110,.F.);
#154=ORIENTED_EDGE('',*,*,#123,.F.);
#155=ORIENTED_EDGE('',*,*,#124,.F.);
#156=ORIENTED_EDGE('',*,*,#111,.F.);
#157=ORIENTED_EDGE('',*,*,#125,.F.);
#158=ORIENTED_EDGE('',*,*,#125,.T.);
#159=ORIENTED_EDGE('',*,*,#122,.T.);
#160=ORIENTED_EDGE('',*,*,#126,.F.);
#161=ORIENTED_EDGE('',*,*,#117,.F.);
#162=ORIENTED_EDGE('',*,*,#127,.T.);
#163=ORIENTED_EDGE('',*,*,#123,.T.);
#164=ORIENTED_EDGE('',*,*,#118,.T.);
#165=ORIENTED_EDGE('',*,*,#128,.F.);
#166=ORIENTED_EDGE('',*,*,#114,.F.);
#167=ORIENTED_EDGE('',*,*,#126,.T.);
#168=ORIENTED_EDGE('',*,*,#121,.T.);
#169=ORIENTED_EDGE('',*,*,#129,.F.);
#170=ORIENTED_EDGE('',*,*,#115,.F.);
#171=ORIENTED_EDGE('',*,*,#128,.T.);
#172=ORIENTED_EDGE('',*,*,#119,.T.);
#173=ORIENTED_EDGE('',*,*,#124,.T.);
#174=ORIENTED_EDGE('',*,*,#127,.F.);
#175=ORIENTED_EDGE('',*,*,#116,.F.);
#176=ORIENTED_EDGE('',*,*,#129,.T.);
#177=ORIENTED_EDGE('',*,*,#120,.T.);
#178=CONICAL_SURFACE('',#199,2.28350635094611,60.);
#179=CONICAL_SURFACE('',#209,2.28350635094611,60.0000000000001);
#180=CONICAL_SURFACE('',#212,4.82842712474619,60.);
#181=CONICAL_SURFACE('',#213,4.82842712474619,60.);
#182=CONICAL_SURFACE('',#214,4.82842712474619,60.);
#183=CONICAL_SURFACE('',#215,4.82842712474619,60.);
#184=ADVANCED_FACE('',(#51,#46),#178,.F.);
#185=ADVANCED_FACE('',(#52,#47),#45,.F.);
#186=ADVANCED_FACE('',(#53,#48),#39,.T.);
#187=ADVANCED_FACE('',(#54,#49),#179,.F.);
#188=ADVANCED_FACE('',(#55,#50),#40,.F.);
#189=ADVANCED_FACE('',(#56),#180,.T.);
#190=ADVANCED_FACE('',(#57),#181,.T.);
#191=ADVANCED_FACE('',(#58),#182,.T.);
#192=ADVANCED_FACE('',(#59),#183,.T.);
#193=ADVANCED_FACE('',(#60),#41,.T.);
#194=ADVANCED_FACE('',(#61),#42,.T.);
#195=ADVANCED_FACE('',(#62),#43,.T.);
#196=ADVANCED_FACE('',(#63),#44,.T.);
#197=CLOSED_SHELL('',(#184,#185,#186,#187,#188,#189,#190,#191,#192,#193,
#194,#195,#196));
#198=AXIS2_PLACEMENT_3D('placement',#272,#220,#221);
#199=AXIS2_PLACEMENT_3D('',#273,#222,#223);
#200=AXIS2_PLACEMENT_3D('',#275,#224,#225);
#201=AXIS2_PLACEMENT_3D('',#277,#226,#227);
#202=AXIS2_PLACEMENT_3D('',#278,#228,#229);
#203=AXIS2_PLACEMENT_3D('',#280,#230,#231);
#204=AXIS2_PLACEMENT_3D('',#281,#232,#233);
#205=AXIS2_PLACEMENT_3D('',#284,#234,#235);
#206=AXIS2_PLACEMENT_3D('',#286,#236,#237);
#207=AXIS2_PLACEMENT_3D('',#288,#238,#239);
#208=AXIS2_PLACEMENT_3D('',#289,#240,#241);
#209=AXIS2_PLACEMENT_3D('',#290,#242,#243);
#210=AXIS2_PLACEMENT_3D('',#292,#244,#245);
#211=AXIS2_PLACEMENT_3D('',#293,#246,#247);
#212=AXIS2_PLACEMENT_3D('',#302,#252,#253);
#213=AXIS2_PLACEMENT_3D('',#310,#254,#255);
#214=AXIS2_PLACEMENT_3D('',#318,#256,#257);
#215=AXIS2_PLACEMENT_3D('',#326,#258,#259);
#216=AXIS2_PLACEMENT_3D('',#334,#260,#261);
#217=AXIS2_PLACEMENT_3D('',#337,#264,#265);
#218=AXIS2_PLACEMENT_3D('',#339,#267,#268);
#219=AXIS2_PLACEMENT_3D('',#341,#270,#271);
#220=DIRECTION('axis',(0.,0.,1.));
#221=DIRECTION('refdir',(1.,0.,0.));
#222=DIRECTION('center_axis',(1.,0.,0.));
#223=DIRECTION('ref_axis',(0.,0.,1.));
#224=DIRECTION('center_axis',(-1.,0.,0.));
#225=DIRECTION('ref_axis',(0.,0.,1.));
#226=DIRECTION('center_axis',(1.,0.,0.));
#227=DIRECTION('ref_axis',(0.,0.,1.));
#228=DIRECTION('center_axis',(-1.,0.,0.));
#229=DIRECTION('ref_axis',(0.,0.,1.));
#230=DIRECTION('center_axis',(1.,0.,0.));
#231=DIRECTION('ref_axis',(0.,0.,-1.));
#232=DIRECTION('center_axis',(1.,0.,0.));
#233=DIRECTION('ref_axis',(0.,0.,-1.));
#234=DIRECTION('center_axis',(1.,0.,0.));
#235=DIRECTION('ref_axis',(1.96261557335472E-16,1.,0.));
#236=DIRECTION('center_axis',(1.,0.,0.));
#237=DIRECTION('ref_axis',(1.96261557335472E-16,1.,0.));
#238=DIRECTION('center_axis',(1.,0.,0.));
#239=DIRECTION('ref_axis',(1.96261557335472E-16,1.,0.));
#240=DIRECTION('center_axis',(1.,0.,0.));
#241=DIRECTION('ref_axis',(1.96261557335472E-16,1.,0.));
#242=DIRECTION('center_axis',(-1.,0.,0.));
#243=DIRECTION('ref_axis',(0.,0.,-1.));
#244=DIRECTION('center_axis',(-1.,0.,0.));
#245=DIRECTION('ref_axis',(0.,0.,-1.));
#246=DIRECTION('center_axis',(1.,0.,0.));
#247=DIRECTION('ref_axis',(0.,0.,-1.));
#248=DIRECTION('',(0.,-0.707106781186548,0.707106781186547));
#249=DIRECTION('',(0.,0.707106781186547,0.707106781186548));
#250=DIRECTION('',(0.,0.707106781186548,-0.707106781186547));
#251=DIRECTION('',(0.,-0.707106781186548,-0.707106781186548));
#252=DIRECTION('center_axis',(-1.,0.,0.));
#253=DIRECTION('ref_axis',(1.96261557335472E-16,1.,0.));
#254=DIRECTION('center_axis',(-1.,0.,0.));
#255=DIRECTION('ref_axis',(1.96261557335472E-16,1.,0.));
#256=DIRECTION('center_axis',(-1.,0.,0.));
#257=DIRECTION('ref_axis',(1.96261557335472E-16,1.,0.));
#258=DIRECTION('center_axis',(-1.,0.,0.));
#259=DIRECTION('ref_axis',(1.96261557335472E-16,1.,0.));
#260=DIRECTION('center_axis',(0.,0.707106781186548,-0.707106781186548));
#261=DIRECTION('ref_axis',(-1.,0.,0.));
#262=DIRECTION('',(1.,0.,0.));
#263=DIRECTION('',(1.,0.,0.));
#264=DIRECTION('center_axis',(0.,-0.707106781186547,-0.707106781186548));
#265=DIRECTION('ref_axis',(-1.,0.,0.));
#266=DIRECTION('',(1.,0.,0.));
#267=DIRECTION('center_axis',(0.,-0.707106781186548,0.707106781186547));
#268=DIRECTION('ref_axis',(1.,0.,0.));
#269=DIRECTION('',(1.,0.,0.));
#270=DIRECTION('center_axis',(0.,0.707106781186547,0.707106781186548));
#271=DIRECTION('ref_axis',(1.,0.,0.));
#272=CARTESIAN_POINT('',(0.,0.,0.));
#273=CARTESIAN_POINT('Origin',(3.875,0.,0.));
#274=CARTESIAN_POINT('',(3.75,-2.53126133335085E-16,-2.067));
#275=CARTESIAN_POINT('Origin',(3.75,0.,0.));
#276=CARTESIAN_POINT('',(4.,3.06153143937386E-16,-2.50001270189222));
#277=CARTESIAN_POINT('Origin',(4.,0.,0.));
#278=CARTESIAN_POINT('Origin',(16.4924225024706,0.,0.));
#279=CARTESIAN_POINT('',(0.249999999999999,-2.53126133335085E-16,2.067));
#280=CARTESIAN_POINT('Origin',(0.249999999999999,0.,0.));
#281=CARTESIAN_POINT('Origin',(4.,2.77555756156289E-16,1.52655665885959E-15));
#282=CARTESIAN_POINT('',(4.,-2.82842712474619,2.82842712474619));
#283=CARTESIAN_POINT('',(4.,-2.82842712474619,-2.82842712474619));
#284=CARTESIAN_POINT('Origin',(4.,0.,0.));
#285=CARTESIAN_POINT('',(4.,2.82842712474619,-2.82842712474619));
#286=CARTESIAN_POINT('Origin',(4.,0.,0.));
#287=CARTESIAN_POINT('',(4.,2.82842712474619,2.82842712474619));
#288=CARTESIAN_POINT('Origin',(4.,0.,0.));
#289=CARTESIAN_POINT('Origin',(4.,0.,0.));
#290=CARTESIAN_POINT('Origin',(0.125,0.,0.));
#291=CARTESIAN_POINT('',(0.,3.06153143937386E-16,2.50001270189222));
#292=CARTESIAN_POINT('Origin',(0.,0.,0.));
#293=CARTESIAN_POINT('Origin',(0.,2.77555756156289E-16,1.52655665885959E-15));
#294=CARTESIAN_POINT('',(0.,0.,-5.65685424949238));
#295=CARTESIAN_POINT('',(0.,-5.65685424949238,-3.43213055054791E-16));
#296=CARTESIAN_POINT('',(0.,0.,-5.65685424949238));
#297=CARTESIAN_POINT('',(0.,-1.38232600354111E-15,5.65685424949238));
#298=CARTESIAN_POINT('',(0.,-5.65685424949238,-3.43213055054791E-16));
#299=CARTESIAN_POINT('',(0.,5.65685424949238,2.42143895202744E-15));
#300=CARTESIAN_POINT('',(0.,-1.38232600354111E-15,5.65685424949238));
#301=CARTESIAN_POINT('',(0.,5.65685424949238,2.42143895202744E-15));
#302=CARTESIAN_POINT('Origin',(3.5217073765238,0.,0.));
#303=CARTESIAN_POINT('',(3.0434147530476,-5.65685424949238,0.));
#304=CARTESIAN_POINT('Ctrl Pts',(4.,-2.82842712474619,-2.82842712474619));
#305=CARTESIAN_POINT('Ctrl Pts',(4.,-4.,-1.65685424949238));
#306=CARTESIAN_POINT('Ctrl Pts',(3.0434147530476,-5.65685424949238,2.60141436226615E-15));
#307=CARTESIAN_POINT('Ctrl Pts',(3.0434147530476,-5.65685424949238,-2.27623756698288E-15));
#308=CARTESIAN_POINT('Ctrl Pts',(4.,-4.,1.65685424949238));
#309=CARTESIAN_POINT('Ctrl Pts',(4.,-2.82842712474619,2.82842712474619));
#310=CARTESIAN_POINT('Origin',(3.5217073765238,0.,0.));
#311=CARTESIAN_POINT('',(3.0434147530476,-3.33066907387547E-15,5.65685424949238));
#312=CARTESIAN_POINT('Ctrl Pts',(3.0434147530476,-1.30070718113308E-15,
5.65685424949238));
#313=CARTESIAN_POINT('Ctrl Pts',(4.,1.65685424949238,4.));
#314=CARTESIAN_POINT('Ctrl Pts',(4.,2.82842712474619,2.82842712474619));
#315=CARTESIAN_POINT('Ctrl Pts',(4.,-2.82842712474619,2.82842712474619));
#316=CARTESIAN_POINT('Ctrl Pts',(4.,-1.65685424949238,4.));
#317=CARTESIAN_POINT('Ctrl Pts',(3.0434147530476,-9.75530385849808E-16,
5.65685424949238));
#318=CARTESIAN_POINT('Origin',(3.5217073765238,0.,0.));
#319=CARTESIAN_POINT('',(3.0434147530476,-2.22044604925031E-15,-5.65685424949238));
#320=CARTESIAN_POINT('Ctrl Pts',(4.,2.82842712474619,-2.82842712474619));
#321=CARTESIAN_POINT('Ctrl Pts',(4.,1.65685424949238,-4.));
#322=CARTESIAN_POINT('Ctrl Pts',(3.0434147530476,-4.55247513396577E-15,
-5.65685424949238));
#323=CARTESIAN_POINT('Ctrl Pts',(3.0434147530476,5.52800551981558E-15,-5.65685424949238));
#324=CARTESIAN_POINT('Ctrl Pts',(4.,-1.65685424949238,-4.));
#325=CARTESIAN_POINT('Ctrl Pts',(4.,-2.82842712474619,-2.82842712474619));
#326=CARTESIAN_POINT('Origin',(3.5217073765238,0.,0.));
#327=CARTESIAN_POINT('',(3.0434147530476,5.65685424949238,0.));
#328=CARTESIAN_POINT('Ctrl Pts',(4.,2.82842712474619,2.82842712474619));
#329=CARTESIAN_POINT('Ctrl Pts',(4.,4.,1.65685424949238));
#330=CARTESIAN_POINT('Ctrl Pts',(3.0434147530476,5.65685424949238,0.));
#331=CARTESIAN_POINT('Ctrl Pts',(3.0434147530476,5.65685424949238,3.90212154339923E-15));
#332=CARTESIAN_POINT('Ctrl Pts',(4.,4.,-1.65685424949238));
#333=CARTESIAN_POINT('Ctrl Pts',(4.,2.82842712474619,-2.82842712474619));
#334=CARTESIAN_POINT('Origin',(0.,5.65685424949238,2.42143895202744E-15));
#335=CARTESIAN_POINT('',(0.,0.,-5.65685424949238));
#336=CARTESIAN_POINT('',(0.,5.65685424949238,2.42143895202744E-15));
#337=CARTESIAN_POINT('Origin',(0.,0.,-5.65685424949238));
#338=CARTESIAN_POINT('',(0.,-5.65685424949238,-3.43213055054791E-16));
#339=CARTESIAN_POINT('Origin',(0.,-5.65685424949238,-3.43213055054791E-16));
#340=CARTESIAN_POINT('',(0.,-1.38232600354111E-15,5.65685424949238));
#341=CARTESIAN_POINT('Origin',(0.,-1.38232600354111E-15,5.65685424949238));
#342=UNCERTAINTY_MEASURE_WITH_UNIT(LENGTH_MEASURE(0.01),#346,
'DISTANCE_ACCURACY_VALUE',
'Maximum model space distance between geometric entities at asserted c
onnectivities');
#343=UNCERTAINTY_MEASURE_WITH_UNIT(LENGTH_MEASURE(1.E-6),#346,
'DISTANCE_ACCURACY_VALUE',
'Maximum model space distance between geometric entities at asserted c
onnectivities');
#344=(
GEOMETRIC_REPRESENTATION_CONTEXT(3)
GLOBAL_UNCERTAINTY_ASSIGNED_CONTEXT((#342))
GLOBAL_UNIT_ASSIGNED_CONTEXT((#346,#349,#347))
REPRESENTATION_CONTEXT('','3D')
);
#345=(
GEOMETRIC_REPRESENTATION_CONTEXT(3)
GLOBAL_UNCERTAINTY_ASSIGNED_CONTEXT((#343))
GLOBAL_UNIT_ASSIGNED_CONTEXT((#346,#349,#347))
REPRESENTATION_CONTEXT('','3D')
);
#346=(
LENGTH_UNIT()
NAMED_UNIT(*)
SI_UNIT(.MILLI.,.METRE.)
);
#347=(
NAMED_UNIT(*)
SI_UNIT($,.STERADIAN.)
SOLID_ANGLE_UNIT()
);
#348=DIMENSIONAL_EXPONENTS(0.,0.,0.,0.,0.,0.,0.);
#349=(
CONVERSION_BASED_UNIT('degree',#351)
NAMED_UNIT(#348)
PLANE_ANGLE_UNIT()
);
#350=(
NAMED_UNIT(*)
PLANE_ANGLE_UNIT()
SI_UNIT($,.RADIAN.)
);
#351=PLANE_ANGLE_MEASURE_WITH_UNIT(PLANE_ANGLE_MEASURE(0.01745329252),#350);
#352=SHAPE_DEFINITION_REPRESENTATION(#353,#354);
#353=PRODUCT_DEFINITION_SHAPE('',$,#356);
#354=SHAPE_REPRESENTATION('',(#198),#344);
#355=PRODUCT_DEFINITION_CONTEXT('part definition',#360,'design');
#356=PRODUCT_DEFINITION('CAD_40769','CAD_40769',#357,#355);
#357=PRODUCT_DEFINITION_FORMATION('',$,#362);
#358=PRODUCT_RELATED_PRODUCT_CATEGORY('CAD_40769','CAD_40769',(#362));
#359=APPLICATION_PROTOCOL_DEFINITION('international standard',
'automotive_design',2009,#360);
#360=APPLICATION_CONTEXT(
'Core Data for Automotive Mechanical Design Process');
#361=PRODUCT_CONTEXT('part definition',#360,'mechanical');
#362=PRODUCT('CAD_40769','CAD_40769',$,(#361));
#363=PRESENTATION_STYLE_ASSIGNMENT((#364));
#364=SURFACE_STYLE_USAGE(.BOTH.,#365);
#365=SURFACE_SIDE_STYLE('',(#366));
#366=SURFACE_STYLE_FILL_AREA(#367);
#367=FILL_AREA_STYLE('',(#368));
#368=FILL_AREA_STYLE_COLOUR('',#369);
#369=COLOUR_RGB('',0.63921568627451,0.63921568627451,0.686274509803922);
ENDSEC;
END-ISO-10303-21;
