ISO-10303-21;
HEADER;
/****************************************************************
 * Generated by software with PDE/Lib inside                    *
 * PDElib Version v51a, created 12/06/2005 Tue                  *
 * International Technegroup Inc. (www.iti-oh.com)              *
 ****************************************************************/
FILE_DESCRIPTION((''),'2;1');
FILE_NAME('SZ0914N.stp','2009-07-27T13:52:39',(''),(''),'Mechanical Desktop 2007','Mechanical Desktop 2007',', , ');
FILE_SCHEMA(('CONFIG_CONTROL_DESIGN'));
ENDSEC;
DATA;
#8=(NAMED_UNIT(*)PLANE_ANGLE_UNIT()SI_UNIT($,.RADIAN.));
#9=DIMENSIONAL_EXPONENTS(0.0,0.0,0.0,0.0,0.0,0.0,0.0);
#10=PLANE_ANGLE_MEASURE_WITH_UNIT(PLANE_ANGLE_MEASURE(0.017453292500000),#8);
#14=(CONVERSION_BASED_UNIT('DEGREE',#10)NAMED_UNIT(#9)PLANE_ANGLE_UNIT());
#18=(NAMED_UNIT(*)SI_UNIT($,.STERADIAN.)SOLID_ANGLE_UNIT());
#22=(LENGTH_UNIT()NAMED_UNIT(*)SI_UNIT(.MILLI.,.METRE.));
#23=UNCERTAINTY_MEASURE_WITH_UNIT(LENGTH_MEASURE(0.000001000000000),#22,'DISTANCE_ACCURACY_VALUE','');
#28=(GEOMETRIC_REPRESENTATION_CONTEXT(3)GLOBAL_UNCERTAINTY_ASSIGNED_CONTEXT((#23))GLOBAL_UNIT_ASSIGNED_CONTEXT((#14,#18,#22))REPRESENTATION_CONTEXT('None','None'));
#29=APPLICATION_CONTEXT('CONFIGURATION CONTROLLED 3D DESIGNS OF MECHANICAL PARTS AND ASSEMBLIES');
#30=APPLICATION_PROTOCOL_DEFINITION('INTERNATIONAL STANDARD','config_control_design',1995,#29);
#31=MECHANICAL_CONTEXT('3D Mechanical Parts',#29,'mechanical');
#32=PRODUCT('SZ0914N','SZ0914N',' ',(#31));
#33=PRODUCT_RELATED_PRODUCT_CATEGORY('detail',$,(#32));
#34=PRODUCT_CATEGORY('part',$);
#35=PRODUCT_CATEGORY_RELATIONSHIP('None','None',#34,#33);
#36=PERSON('1','Design','Joe',$,$,$);
#37=ORGANIZATION($,'None','None');
#38=PERSON_AND_ORGANIZATION(#36,#37);
#39=PERSON_AND_ORGANIZATION_ROLE('design_owner');
#40=CC_DESIGN_PERSON_AND_ORGANIZATION_ASSIGNMENT(#38,#39,(#32));
#41=PRODUCT_DEFINITION_FORMATION_WITH_SPECIFIED_SOURCE('None','None',#32,.NOT_KNOWN.);
#42=PERSON('2','Creator','Joe',$,$,$);
#43=ORGANIZATION($,'None','None');
#44=PERSON_AND_ORGANIZATION(#42,#43);
#45=PERSON_AND_ORGANIZATION_ROLE('creator');
#46=CC_DESIGN_PERSON_AND_ORGANIZATION_ASSIGNMENT(#44,#45,(#41));
#47=PERSON('3','Supplier','Joe',$,$,$);
#48=ORGANIZATION($,'None','None');
#49=PERSON_AND_ORGANIZATION(#47,#48);
#50=PERSON_AND_ORGANIZATION_ROLE('design_supplier');
#51=CC_DESIGN_PERSON_AND_ORGANIZATION_ASSIGNMENT(#49,#50,(#41));
#52=APPROVAL_STATUS('approved');
#53=APPROVAL(#52,'None');
#54=PERSON('4','Approver','Joe',$,$,$);
#55=ORGANIZATION($,'None','None');
#56=PERSON_AND_ORGANIZATION(#54,#55);
#57=APPROVAL_ROLE('approver');
#58=APPROVAL_PERSON_ORGANIZATION(#56,#53,#57);
#59=COORDINATED_UNIVERSAL_TIME_OFFSET(8,$,.BEHIND.);
#60=CALENDAR_DATE(1996,29,5);
#61=LOCAL_TIME(12,0,0.0,#59);
#62=DATE_AND_TIME(#60,#61);
#63=APPROVAL_DATE_TIME(#62,#53);
#64=CC_DESIGN_APPROVAL(#53,(#41));
#65=SECURITY_CLASSIFICATION_LEVEL('unclassified');
#66=SECURITY_CLASSIFICATION('security','None',#65);
#67=CC_DESIGN_SECURITY_CLASSIFICATION(#66,(#41));
#68=APPROVAL_STATUS('approved');
#69=APPROVAL(#68,'None');
#70=PERSON('5','Approver','Joe',$,$,$);
#71=ORGANIZATION($,'None','None');
#72=PERSON_AND_ORGANIZATION(#70,#71);
#73=APPROVAL_ROLE('approver');
#74=APPROVAL_PERSON_ORGANIZATION(#72,#69,#73);
#75=COORDINATED_UNIVERSAL_TIME_OFFSET(8,$,.BEHIND.);
#76=CALENDAR_DATE(1996,29,5);
#77=LOCAL_TIME(12,0,0.0,#75);
#78=DATE_AND_TIME(#76,#77);
#79=APPROVAL_DATE_TIME(#78,#69);
#80=CC_DESIGN_APPROVAL(#69,(#66));
#81=PERSON('6','Classifier','Joe',$,$,$);
#82=ORGANIZATION($,'None','None');
#83=PERSON_AND_ORGANIZATION(#81,#82);
#84=PERSON_AND_ORGANIZATION_ROLE('classification_officer');
#85=CC_DESIGN_PERSON_AND_ORGANIZATION_ASSIGNMENT(#83,#84,(#66));
#86=COORDINATED_UNIVERSAL_TIME_OFFSET(8,$,.BEHIND.);
#87=CALENDAR_DATE(1996,29,5);
#88=LOCAL_TIME(12,0,0.0,#86);
#89=DATE_AND_TIME(#87,#88);
#90=DATE_TIME_ROLE('classification_date');
#91=CC_DESIGN_DATE_AND_TIME_ASSIGNMENT(#89,#90,(#66));
#92=DESIGN_CONTEXT('Design Context',#29,'design');
#93=PRODUCT_DEFINITION('None','None',#41,#92);
#94=PERSON('7','Creator','Joe',$,$,$);
#95=ORGANIZATION($,'None','None');
#96=PERSON_AND_ORGANIZATION(#94,#95);
#97=PERSON_AND_ORGANIZATION_ROLE('creator');
#98=CC_DESIGN_PERSON_AND_ORGANIZATION_ASSIGNMENT(#96,#97,(#93));
#99=COORDINATED_UNIVERSAL_TIME_OFFSET(8,$,.BEHIND.);
#100=CALENDAR_DATE(1996,29,5);
#101=LOCAL_TIME(12,0,0.0,#99);
#102=DATE_AND_TIME(#100,#101);
#103=DATE_TIME_ROLE('creation_date');
#104=CC_DESIGN_DATE_AND_TIME_ASSIGNMENT(#102,#103,(#93));
#105=APPROVAL_STATUS('approved');
#106=APPROVAL(#105,'None');
#107=PERSON('8','Approver','Joe',$,$,$);
#108=ORGANIZATION($,'None','None');
#109=PERSON_AND_ORGANIZATION(#107,#108);
#110=APPROVAL_ROLE('approver');
#111=APPROVAL_PERSON_ORGANIZATION(#109,#106,#110);
#112=COORDINATED_UNIVERSAL_TIME_OFFSET(8,$,.BEHIND.);
#113=CALENDAR_DATE(1996,29,5);
#114=LOCAL_TIME(12,0,0.0,#112);
#115=DATE_AND_TIME(#113,#114);
#116=APPROVAL_DATE_TIME(#115,#106);
#117=CC_DESIGN_APPROVAL(#106,(#93));
#118=CARTESIAN_POINT('NONE',(0.0,0.0,0.0));
#119=DIRECTION('NONE',(0.0,0.0,1.0));
#120=DIRECTION('NONE',(1.0,0.0,0.0));
#121=AXIS2_PLACEMENT_3D('NONE',#118,#119,#120);
#122=SHAPE_REPRESENTATION('SR1',(#121),#28);
#123=PRODUCT_DEFINITION_SHAPE('PDS1','Test Part',#93);
#124=SHAPE_DEFINITION_REPRESENTATION(#123,#122);
#125=CARTESIAN_POINT('',(128.003942108174670,283.605964535876750,-48.851648071345039));
#126=DIRECTION('',(0.0,0.0,-1.0));
#127=DIRECTION('',(-1.0,0.0,0.0));
#128=AXIS2_PLACEMENT_3D('',#125,#126,#127);
#129=CYLINDRICAL_SURFACE('',#128,3.250000000000000);
#130=CARTESIAN_POINT('',(124.753942108174670,283.605964535876750,5.0));
#131=VERTEX_POINT('',#130);
#132=CARTESIAN_POINT('',(124.753942108174670,283.605964535876750,0.0));
#133=VERTEX_POINT('',#132);
#134=CARTESIAN_POINT('',(124.753942108174670,283.605964535876750,5.0));
#135=DIRECTION('',(0.0,0.0,-1.0));
#136=VECTOR('',#135,5.0);
#137=LINE('',#134,#136);
#138=EDGE_CURVE('',#131,#133,#137,.T.);
#139=ORIENTED_EDGE('',*,*,#138,.F.);
#140=CARTESIAN_POINT('',(131.253942108174670,283.605964535876750,5.0));
#141=VERTEX_POINT('',#140);
#142=CARTESIAN_POINT('',(128.003942108174670,283.605964535876750,5.0));
#143=DIRECTION('',(0.0,0.0,-1.0));
#144=DIRECTION('',(-1.0,0.0,0.0));
#145=AXIS2_PLACEMENT_3D('',#142,#143,#144);
#146=CIRCLE('',#145,3.250000000000000);
#147=EDGE_CURVE('',#141,#131,#146,.T.);
#148=ORIENTED_EDGE('',*,*,#147,.F.);
#149=CARTESIAN_POINT('',(131.253942108174670,283.605964535876750,0.0));
#150=VERTEX_POINT('',#149);
#151=CARTESIAN_POINT('',(131.253942108174670,283.605964535876750,5.0));
#152=DIRECTION('',(0.0,0.0,-1.0));
#153=VECTOR('',#152,5.0);
#154=LINE('',#151,#153);
#155=EDGE_CURVE('',#141,#150,#154,.T.);
#156=ORIENTED_EDGE('',*,*,#155,.T.);
#157=CARTESIAN_POINT('',(128.003942108174670,283.605964535876750,0.0));
#158=DIRECTION('',(0.0,0.0,1.0));
#159=DIRECTION('',(-1.0,0.0,0.0));
#160=AXIS2_PLACEMENT_3D('',#157,#158,#159);
#161=CIRCLE('',#160,3.250000000000000);
#162=EDGE_CURVE('',#133,#150,#161,.T.);
#163=ORIENTED_EDGE('',*,*,#162,.F.);
#164=EDGE_LOOP('',(#139,#148,#156,#163));
#165=FACE_OUTER_BOUND('',#164,.T.);
#166=ADVANCED_FACE('',(#165),#129,.F.);
#167=CARTESIAN_POINT('',(148.003942108174670,283.605964535876750,-48.851648071345039));
#168=DIRECTION('',(0.0,0.0,-1.0));
#169=DIRECTION('',(-1.0,0.0,0.0));
#170=AXIS2_PLACEMENT_3D('',#167,#168,#169);
#171=CYLINDRICAL_SURFACE('',#170,3.250000000000000);
#172=CARTESIAN_POINT('',(144.753942108174670,283.605964535876750,5.0));
#173=VERTEX_POINT('',#172);
#174=CARTESIAN_POINT('',(144.753942108174670,283.605964535876750,0.0));
#175=VERTEX_POINT('',#174);
#176=CARTESIAN_POINT('',(144.753942108174670,283.605964535876750,5.0));
#177=DIRECTION('',(0.0,0.0,-1.0));
#178=VECTOR('',#177,5.0);
#179=LINE('',#176,#178);
#180=EDGE_CURVE('',#173,#175,#179,.T.);
#181=ORIENTED_EDGE('',*,*,#180,.F.);
#182=CARTESIAN_POINT('',(151.253942108174670,283.605964535876750,5.0));
#183=VERTEX_POINT('',#182);
#184=CARTESIAN_POINT('',(148.003942108174670,283.605964535876750,5.0));
#185=DIRECTION('',(0.0,0.0,-1.0));
#186=DIRECTION('',(-1.0,0.0,0.0));
#187=AXIS2_PLACEMENT_3D('',#184,#185,#186);
#188=CIRCLE('',#187,3.250000000000000);
#189=EDGE_CURVE('',#183,#173,#188,.T.);
#190=ORIENTED_EDGE('',*,*,#189,.F.);
#191=CARTESIAN_POINT('',(151.253942108174670,283.605964535876750,0.0));
#192=VERTEX_POINT('',#191);
#193=CARTESIAN_POINT('',(151.253942108174670,283.605964535876750,5.0));
#194=DIRECTION('',(0.0,0.0,-1.0));
#195=VECTOR('',#194,5.0);
#196=LINE('',#193,#195);
#197=EDGE_CURVE('',#183,#192,#196,.T.);
#198=ORIENTED_EDGE('',*,*,#197,.T.);
#199=CARTESIAN_POINT('',(148.003942108174670,283.605964535876750,0.0));
#200=DIRECTION('',(0.0,0.0,1.0));
#201=DIRECTION('',(-1.0,0.0,0.0));
#202=AXIS2_PLACEMENT_3D('',#199,#200,#201);
#203=CIRCLE('',#202,3.250000000000000);
#204=EDGE_CURVE('',#175,#192,#203,.T.);
#205=ORIENTED_EDGE('',*,*,#204,.F.);
#206=EDGE_LOOP('',(#181,#190,#198,#205));
#207=FACE_OUTER_BOUND('',#206,.T.);
#208=ADVANCED_FACE('',(#207),#171,.F.);
#209=CARTESIAN_POINT('',(209.355590179519710,283.605964535876750,12.500000000000000));
#210=DIRECTION('',(1.0,0.0,0.0));
#211=DIRECTION('',(0.0,0.0,1.0));
#212=AXIS2_PLACEMENT_3D('',#209,#210,#211);
#213=CYLINDRICAL_SURFACE('',#212,3.250000000000000);
#214=CARTESIAN_POINT('',(155.503942108174670,283.605964535876750,15.750000000000000));
#215=VERTEX_POINT('',#214);
#216=CARTESIAN_POINT('',(160.503942108174670,283.605964535876750,15.750000000000000));
#217=VERTEX_POINT('',#216);
#218=CARTESIAN_POINT('',(155.503942108174670,283.605964535876750,15.750000000000000));
#219=DIRECTION('',(1.0,0.0,0.0));
#220=VECTOR('',#219,5.0);
#221=LINE('',#218,#220);
#222=EDGE_CURVE('',#215,#217,#221,.T.);
#223=ORIENTED_EDGE('',*,*,#222,.F.);
#224=CARTESIAN_POINT('',(155.503942108174670,283.605964535876750,9.250000000000000));
#225=VERTEX_POINT('',#224);
#226=CARTESIAN_POINT('',(155.503942108174670,283.605964535876750,12.500000000000000));
#227=DIRECTION('',(1.0,0.0,0.0));
#228=DIRECTION('',(0.0,0.0,1.0));
#229=AXIS2_PLACEMENT_3D('',#226,#227,#228);
#230=CIRCLE('',#229,3.250000000000000);
#231=EDGE_CURVE('',#225,#215,#230,.T.);
#232=ORIENTED_EDGE('',*,*,#231,.F.);
#233=CARTESIAN_POINT('',(160.503942108174670,283.605964535876750,9.250000000000000));
#234=VERTEX_POINT('',#233);
#235=CARTESIAN_POINT('',(155.503942108174670,283.605964535876750,9.250000000000000));
#236=DIRECTION('',(1.0,0.0,0.0));
#237=VECTOR('',#236,5.0);
#238=LINE('',#235,#237);
#239=EDGE_CURVE('',#225,#234,#238,.T.);
#240=ORIENTED_EDGE('',*,*,#239,.T.);
#241=CARTESIAN_POINT('',(160.503942108174670,283.605964535876750,12.500000000000000));
#242=DIRECTION('',(-1.0,0.0,0.0));
#243=DIRECTION('',(0.0,0.0,1.0));
#244=AXIS2_PLACEMENT_3D('',#241,#242,#243);
#245=CIRCLE('',#244,3.250000000000000);
#246=EDGE_CURVE('',#217,#234,#245,.T.);
#247=ORIENTED_EDGE('',*,*,#246,.F.);
#248=EDGE_LOOP('',(#223,#232,#240,#247));
#249=FACE_OUTER_BOUND('',#248,.T.);
#250=ADVANCED_FACE('',(#249),#213,.F.);
#251=CARTESIAN_POINT('',(209.355590179519710,283.605964535876750,12.500000000000000));
#252=DIRECTION('',(1.0,0.0,0.0));
#253=DIRECTION('',(0.0,0.0,1.0));
#254=AXIS2_PLACEMENT_3D('',#251,#252,#253);
#255=CYLINDRICAL_SURFACE('',#254,3.250000000000000);
#256=ORIENTED_EDGE('',*,*,#222,.T.);
#257=CARTESIAN_POINT('',(160.503942108174670,283.605964535876750,12.500000000000000));
#258=DIRECTION('',(-1.0,0.0,0.0));
#259=DIRECTION('',(0.0,0.0,1.0));
#260=AXIS2_PLACEMENT_3D('',#257,#258,#259);
#261=CIRCLE('',#260,3.250000000000000);
#262=EDGE_CURVE('',#234,#217,#261,.T.);
#263=ORIENTED_EDGE('',*,*,#262,.F.);
#264=ORIENTED_EDGE('',*,*,#239,.F.);
#265=CARTESIAN_POINT('',(155.503942108174670,283.605964535876750,12.500000000000000));
#266=DIRECTION('',(1.0,0.0,0.0));
#267=DIRECTION('',(0.0,0.0,1.0));
#268=AXIS2_PLACEMENT_3D('',#265,#266,#267);
#269=CIRCLE('',#268,3.250000000000000);
#270=EDGE_CURVE('',#215,#225,#269,.T.);
#271=ORIENTED_EDGE('',*,*,#270,.F.);
#272=EDGE_LOOP('',(#256,#263,#264,#271));
#273=FACE_OUTER_BOUND('',#272,.T.);
#274=ADVANCED_FACE('',(#273),#255,.F.);
#275=CARTESIAN_POINT('',(148.003942108174670,283.605964535876750,-48.851648071345039));
#276=DIRECTION('',(0.0,0.0,-1.0));
#277=DIRECTION('',(-1.0,0.0,0.0));
#278=AXIS2_PLACEMENT_3D('',#275,#276,#277);
#279=CYLINDRICAL_SURFACE('',#278,3.250000000000000);
#280=ORIENTED_EDGE('',*,*,#180,.T.);
#281=CARTESIAN_POINT('',(148.003942108174670,283.605964535876750,0.0));
#282=DIRECTION('',(0.0,0.0,1.0));
#283=DIRECTION('',(-1.0,0.0,0.0));
#284=AXIS2_PLACEMENT_3D('',#281,#282,#283);
#285=CIRCLE('',#284,3.250000000000000);
#286=EDGE_CURVE('',#192,#175,#285,.T.);
#287=ORIENTED_EDGE('',*,*,#286,.F.);
#288=ORIENTED_EDGE('',*,*,#197,.F.);
#289=CARTESIAN_POINT('',(148.003942108174670,283.605964535876750,5.0));
#290=DIRECTION('',(0.0,0.0,-1.0));
#291=DIRECTION('',(-1.0,0.0,0.0));
#292=AXIS2_PLACEMENT_3D('',#289,#290,#291);
#293=CIRCLE('',#292,3.250000000000000);
#294=EDGE_CURVE('',#173,#183,#293,.T.);
#295=ORIENTED_EDGE('',*,*,#294,.F.);
#296=EDGE_LOOP('',(#280,#287,#288,#295));
#297=FACE_OUTER_BOUND('',#296,.T.);
#298=ADVANCED_FACE('',(#297),#279,.F.);
#299=CARTESIAN_POINT('',(128.003942108174670,283.605964535876750,-48.851648071345039));
#300=DIRECTION('',(0.0,0.0,-1.0));
#301=DIRECTION('',(-1.0,0.0,0.0));
#302=AXIS2_PLACEMENT_3D('',#299,#300,#301);
#303=CYLINDRICAL_SURFACE('',#302,3.250000000000000);
#304=ORIENTED_EDGE('',*,*,#138,.T.);
#305=CARTESIAN_POINT('',(128.003942108174670,283.605964535876750,0.0));
#306=DIRECTION('',(0.0,0.0,1.0));
#307=DIRECTION('',(-1.0,0.0,0.0));
#308=AXIS2_PLACEMENT_3D('',#305,#306,#307);
#309=CIRCLE('',#308,3.250000000000000);
#310=EDGE_CURVE('',#150,#133,#309,.T.);
#311=ORIENTED_EDGE('',*,*,#310,.F.);
#312=ORIENTED_EDGE('',*,*,#155,.F.);
#313=CARTESIAN_POINT('',(128.003942108174670,283.605964535876750,5.0));
#314=DIRECTION('',(0.0,0.0,-1.0));
#315=DIRECTION('',(-1.0,0.0,0.0));
#316=AXIS2_PLACEMENT_3D('',#313,#314,#315);
#317=CIRCLE('',#316,3.250000000000000);
#318=EDGE_CURVE('',#131,#141,#317,.T.);
#319=ORIENTED_EDGE('',*,*,#318,.F.);
#320=EDGE_LOOP('',(#304,#311,#312,#319));
#321=FACE_OUTER_BOUND('',#320,.T.);
#322=ADVANCED_FACE('',(#321),#303,.F.);
#323=CARTESIAN_POINT('',(155.503942108174670,268.605964535876750,0.0));
#324=DIRECTION('',(-1.0,0.0,0.0));
#325=DIRECTION('',(0.0,0.0,1.0));
#326=AXIS2_PLACEMENT_3D('',#323,#324,#325);
#327=PLANE('',#326);
#328=CARTESIAN_POINT('',(155.503942108174670,298.605964535876750,5.0));
#329=VERTEX_POINT('',#328);
#330=CARTESIAN_POINT('',(155.503942108174670,268.605964535876750,5.0));
#331=VERTEX_POINT('',#330);
#332=CARTESIAN_POINT('',(155.503942108174670,298.605964535876750,5.0));
#333=DIRECTION('',(0.0,-1.0,0.0));
#334=VECTOR('',#333,30.0);
#335=LINE('',#332,#334);
#336=EDGE_CURVE('',#329,#331,#335,.T.);
#337=ORIENTED_EDGE('',*,*,#336,.T.);
#338=CARTESIAN_POINT('',(155.503942108174670,268.605964535876750,20.0));
#339=VERTEX_POINT('',#338);
#340=CARTESIAN_POINT('',(155.503942108174670,268.605964535876750,5.0));
#341=DIRECTION('',(0.0,0.0,1.0));
#342=VECTOR('',#341,15.0);
#343=LINE('',#340,#342);
#344=EDGE_CURVE('',#331,#339,#343,.T.);
#345=ORIENTED_EDGE('',*,*,#344,.T.);
#346=CARTESIAN_POINT('',(155.503942108174670,298.605964535876750,20.0));
#347=VERTEX_POINT('',#346);
#348=CARTESIAN_POINT('',(155.503942108174670,268.605964535876750,20.0));
#349=DIRECTION('',(0.0,1.0,0.0));
#350=VECTOR('',#349,30.0);
#351=LINE('',#348,#350);
#352=EDGE_CURVE('',#339,#347,#351,.T.);
#353=ORIENTED_EDGE('',*,*,#352,.T.);
#354=CARTESIAN_POINT('',(155.503942108174670,298.605964535876750,5.0));
#355=DIRECTION('',(0.0,0.0,1.0));
#356=VECTOR('',#355,15.0);
#357=LINE('',#354,#356);
#358=EDGE_CURVE('',#329,#347,#357,.T.);
#359=ORIENTED_EDGE('',*,*,#358,.F.);
#360=EDGE_LOOP('',(#337,#345,#353,#359));
#361=FACE_OUTER_BOUND('',#360,.T.);
#362=ORIENTED_EDGE('',*,*,#270,.T.);
#363=ORIENTED_EDGE('',*,*,#231,.T.);
#364=EDGE_LOOP('',(#362,#363));
#365=FACE_BOUND('',#364,.T.);
#366=ADVANCED_FACE('',(#361,#365),#327,.T.);
#367=CARTESIAN_POINT('',(160.503942108174670,298.605964535876750,0.0));
#368=DIRECTION('',(1.0,0.0,0.0));
#369=DIRECTION('',(0.0,0.0,-1.0));
#370=AXIS2_PLACEMENT_3D('',#367,#368,#369);
#371=PLANE('',#370);
#372=CARTESIAN_POINT('',(160.503942108174670,298.605964535876750,20.0));
#373=VERTEX_POINT('',#372);
#374=CARTESIAN_POINT('',(160.503942108174670,268.605964535876750,20.0));
#375=VERTEX_POINT('',#374);
#376=CARTESIAN_POINT('',(160.503942108174670,298.605964535876750,20.0));
#377=DIRECTION('',(0.0,-1.0,0.0));
#378=VECTOR('',#377,30.0);
#379=LINE('',#376,#378);
#380=EDGE_CURVE('',#373,#375,#379,.T.);
#381=ORIENTED_EDGE('',*,*,#380,.T.);
#382=CARTESIAN_POINT('',(160.503942108174670,268.605964535876750,0.0));
#383=VERTEX_POINT('',#382);
#384=CARTESIAN_POINT('',(160.503942108174670,268.605964535876750,0.0));
#385=DIRECTION('',(0.0,0.0,1.0));
#386=VECTOR('',#385,20.0);
#387=LINE('',#384,#386);
#388=EDGE_CURVE('',#383,#375,#387,.T.);
#389=ORIENTED_EDGE('',*,*,#388,.F.);
#390=CARTESIAN_POINT('',(160.503942108174670,298.605964535876750,0.0));
#391=VERTEX_POINT('',#390);
#392=CARTESIAN_POINT('',(160.503942108174670,298.605964535876750,0.0));
#393=DIRECTION('',(0.0,-1.0,0.0));
#394=VECTOR('',#393,30.0);
#395=LINE('',#392,#394);
#396=EDGE_CURVE('',#391,#383,#395,.T.);
#397=ORIENTED_EDGE('',*,*,#396,.F.);
#398=CARTESIAN_POINT('',(160.503942108174670,298.605964535876750,0.0));
#399=DIRECTION('',(0.0,0.0,1.0));
#400=VECTOR('',#399,20.0);
#401=LINE('',#398,#400);
#402=EDGE_CURVE('',#391,#373,#401,.T.);
#403=ORIENTED_EDGE('',*,*,#402,.T.);
#404=EDGE_LOOP('',(#381,#389,#397,#403));
#405=FACE_OUTER_BOUND('',#404,.T.);
#406=ORIENTED_EDGE('',*,*,#262,.T.);
#407=ORIENTED_EDGE('',*,*,#246,.T.);
#408=EDGE_LOOP('',(#406,#407));
#409=FACE_BOUND('',#408,.T.);
#410=ADVANCED_FACE('',(#405,#409),#371,.T.);
#411=CARTESIAN_POINT('',(155.503942108174670,298.605964535876750,20.0));
#412=DIRECTION('',(0.0,0.0,-1.0));
#413=DIRECTION('',(-1.0,0.0,0.0));
#414=AXIS2_PLACEMENT_3D('',#411,#412,#413);
#415=PLANE('',#414);
#416=CARTESIAN_POINT('',(155.503942108174670,298.605964535876750,20.0));
#417=DIRECTION('',(1.0,0.0,0.0));
#418=VECTOR('',#417,5.0);
#419=LINE('',#416,#418);
#420=EDGE_CURVE('',#347,#373,#419,.T.);
#421=ORIENTED_EDGE('',*,*,#420,.F.);
#422=ORIENTED_EDGE('',*,*,#352,.F.);
#423=CARTESIAN_POINT('',(160.503942108174670,268.605964535876750,20.0));
#424=DIRECTION('',(-1.0,0.0,0.0));
#425=VECTOR('',#424,5.0);
#426=LINE('',#423,#425);
#427=EDGE_CURVE('',#375,#339,#426,.T.);
#428=ORIENTED_EDGE('',*,*,#427,.F.);
#429=ORIENTED_EDGE('',*,*,#380,.F.);
#430=EDGE_LOOP('',(#421,#422,#428,#429));
#431=FACE_OUTER_BOUND('',#430,.T.);
#432=ADVANCED_FACE('',(#431),#415,.F.);
#433=CARTESIAN_POINT('',(120.503942108174670,298.605964535876750,0.0));
#434=DIRECTION('',(0.0,1.0,0.0));
#435=DIRECTION('',(0.0,0.0,1.0));
#436=AXIS2_PLACEMENT_3D('',#433,#434,#435);
#437=PLANE('',#436);
#438=CARTESIAN_POINT('',(120.503942108174670,298.605964535876750,5.0));
#439=VERTEX_POINT('',#438);
#440=CARTESIAN_POINT('',(120.503942108174670,298.605964535876750,5.0));
#441=DIRECTION('',(1.0,0.0,0.0));
#442=VECTOR('',#441,35.0);
#443=LINE('',#440,#442);
#444=EDGE_CURVE('',#439,#329,#443,.T.);
#445=ORIENTED_EDGE('',*,*,#444,.T.);
#446=ORIENTED_EDGE('',*,*,#358,.T.);
#447=ORIENTED_EDGE('',*,*,#420,.T.);
#448=ORIENTED_EDGE('',*,*,#402,.F.);
#449=CARTESIAN_POINT('',(120.503942108174670,298.605964535876750,0.0));
#450=VERTEX_POINT('',#449);
#451=CARTESIAN_POINT('',(120.503942108174670,298.605964535876750,0.0));
#452=DIRECTION('',(1.0,0.0,0.0));
#453=VECTOR('',#452,40.0);
#454=LINE('',#451,#453);
#455=EDGE_CURVE('',#450,#391,#454,.T.);
#456=ORIENTED_EDGE('',*,*,#455,.F.);
#457=CARTESIAN_POINT('',(120.503942108174670,298.605964535876750,0.0));
#458=DIRECTION('',(0.0,0.0,1.0));
#459=VECTOR('',#458,5.0);
#460=LINE('',#457,#459);
#461=EDGE_CURVE('',#450,#439,#460,.T.);
#462=ORIENTED_EDGE('',*,*,#461,.T.);
#463=EDGE_LOOP('',(#445,#446,#447,#448,#456,#462));
#464=FACE_OUTER_BOUND('',#463,.T.);
#465=ADVANCED_FACE('',(#464),#437,.T.);
#466=CARTESIAN_POINT('',(155.503942108174670,268.605964535876750,0.0));
#467=DIRECTION('',(0.0,-1.0,0.0));
#468=DIRECTION('',(0.0,0.0,-1.0));
#469=AXIS2_PLACEMENT_3D('',#466,#467,#468);
#470=PLANE('',#469);
#471=CARTESIAN_POINT('',(120.503942108174670,268.605964535876750,5.0));
#472=VERTEX_POINT('',#471);
#473=CARTESIAN_POINT('',(155.503942108174670,268.605964535876750,5.0));
#474=DIRECTION('',(-1.0,0.0,0.0));
#475=VECTOR('',#474,35.0);
#476=LINE('',#473,#475);
#477=EDGE_CURVE('',#331,#472,#476,.T.);
#478=ORIENTED_EDGE('',*,*,#477,.T.);
#479=CARTESIAN_POINT('',(120.503942108174670,268.605964535876750,0.0));
#480=VERTEX_POINT('',#479);
#481=CARTESIAN_POINT('',(120.503942108174670,268.605964535876750,0.0));
#482=DIRECTION('',(0.0,0.0,1.0));
#483=VECTOR('',#482,5.0);
#484=LINE('',#481,#483);
#485=EDGE_CURVE('',#480,#472,#484,.T.);
#486=ORIENTED_EDGE('',*,*,#485,.F.);
#487=CARTESIAN_POINT('',(160.503942108174670,268.605964535876750,0.0));
#488=DIRECTION('',(-1.0,0.0,0.0));
#489=VECTOR('',#488,40.0);
#490=LINE('',#487,#489);
#491=EDGE_CURVE('',#383,#480,#490,.T.);
#492=ORIENTED_EDGE('',*,*,#491,.F.);
#493=ORIENTED_EDGE('',*,*,#388,.T.);
#494=ORIENTED_EDGE('',*,*,#427,.T.);
#495=ORIENTED_EDGE('',*,*,#344,.F.);
#496=EDGE_LOOP('',(#478,#486,#492,#493,#494,#495));
#497=FACE_OUTER_BOUND('',#496,.T.);
#498=ADVANCED_FACE('',(#497),#470,.T.);
#499=CARTESIAN_POINT('',(120.503942108174670,268.605964535876750,0.0));
#500=DIRECTION('',(-1.0,0.0,0.0));
#501=DIRECTION('',(0.0,0.0,1.0));
#502=AXIS2_PLACEMENT_3D('',#499,#500,#501);
#503=PLANE('',#502);
#504=CARTESIAN_POINT('',(120.503942108174670,268.605964535876750,5.0));
#505=DIRECTION('',(0.0,1.0,0.0));
#506=VECTOR('',#505,30.0);
#507=LINE('',#504,#506);
#508=EDGE_CURVE('',#472,#439,#507,.T.);
#509=ORIENTED_EDGE('',*,*,#508,.T.);
#510=ORIENTED_EDGE('',*,*,#461,.F.);
#511=CARTESIAN_POINT('',(120.503942108174670,268.605964535876750,0.0));
#512=DIRECTION('',(0.0,1.0,0.0));
#513=VECTOR('',#512,30.0);
#514=LINE('',#511,#513);
#515=EDGE_CURVE('',#480,#450,#514,.T.);
#516=ORIENTED_EDGE('',*,*,#515,.F.);
#517=ORIENTED_EDGE('',*,*,#485,.T.);
#518=EDGE_LOOP('',(#509,#510,#516,#517));
#519=FACE_OUTER_BOUND('',#518,.T.);
#520=ADVANCED_FACE('',(#519),#503,.T.);
#521=CARTESIAN_POINT('',(120.503942108174670,298.605964535876750,5.0));
#522=DIRECTION('',(0.0,0.0,-1.0));
#523=DIRECTION('',(-1.0,0.0,0.0));
#524=AXIS2_PLACEMENT_3D('',#521,#522,#523);
#525=PLANE('',#524);
#526=ORIENTED_EDGE('',*,*,#444,.F.);
#527=ORIENTED_EDGE('',*,*,#508,.F.);
#528=ORIENTED_EDGE('',*,*,#477,.F.);
#529=ORIENTED_EDGE('',*,*,#336,.F.);
#530=EDGE_LOOP('',(#526,#527,#528,#529));
#531=FACE_OUTER_BOUND('',#530,.T.);
#532=ORIENTED_EDGE('',*,*,#294,.T.);
#533=ORIENTED_EDGE('',*,*,#189,.T.);
#534=EDGE_LOOP('',(#532,#533));
#535=FACE_BOUND('',#534,.T.);
#536=ORIENTED_EDGE('',*,*,#318,.T.);
#537=ORIENTED_EDGE('',*,*,#147,.T.);
#538=EDGE_LOOP('',(#536,#537));
#539=FACE_BOUND('',#538,.T.);
#540=ADVANCED_FACE('',(#531,#535,#539),#525,.F.);
#541=CARTESIAN_POINT('',(138.003942108174670,283.605964535876750,0.0));
#542=DIRECTION('',(0.0,0.0,1.0));
#543=DIRECTION('',(1.0,0.0,0.0));
#544=AXIS2_PLACEMENT_3D('',#541,#542,#543);
#545=PLANE('',#544);
#546=ORIENTED_EDGE('',*,*,#515,.T.);
#547=ORIENTED_EDGE('',*,*,#455,.T.);
#548=ORIENTED_EDGE('',*,*,#396,.T.);
#549=ORIENTED_EDGE('',*,*,#491,.T.);
#550=EDGE_LOOP('',(#546,#547,#548,#549));
#551=FACE_OUTER_BOUND('',#550,.T.);
#552=ORIENTED_EDGE('',*,*,#286,.T.);
#553=ORIENTED_EDGE('',*,*,#204,.T.);
#554=EDGE_LOOP('',(#552,#553));
#555=FACE_BOUND('',#554,.T.);
#556=ORIENTED_EDGE('',*,*,#310,.T.);
#557=ORIENTED_EDGE('',*,*,#162,.T.);
#558=EDGE_LOOP('',(#556,#557));
#559=FACE_BOUND('',#558,.T.);
#560=ADVANCED_FACE('',(#551,#555,#559),#545,.F.);
#561=CLOSED_SHELL('',(#166,#208,#250,#274,#298,#322,#366,#410,#432,#465,#498,#520,#540,#560));
#562=MANIFOLD_SOLID_BREP('4F1',#561);
#563=ADVANCED_BREP_SHAPE_REPRESENTATION('ABSR1',(#562),#28);
#564=SHAPE_REPRESENTATION_RELATIONSHIP('SRRPL1',' ',#563,#122);
ENDSEC;
END-ISO-10303-21;
