ISO-10303-21;
HEADER;
/* Generated by software containing ST-Developer
 * from STEP Tools, Inc. (www.steptools.com) 
 */

FILE_DESCRIPTION(
/* description */ (''),
/* implementation_level */ '2;1');

FILE_NAME(
/* name */ 
'X:\\VIRI ZA WEB\\CAD DATOTEKE\\LINEARNE ENOTE UNIMOTION\\DODATNA OPRE
MA ZA LINEARNE ENOTE\\POVEZOVALNI ELEMENTI\\CENTRIRNI OBRO\X2\010C\X0\I
\\CR 9_12\\izvoz\\CAD_48885.stp',
/* time_stamp */ '2016-03-19T09:07:27+01:00',
/* author */ ('Hypex'),
/* organization */ ('Hypex'),
/* preprocessor_version */ 'ST-DEVELOPER v16.1',
/* originating_system */ 'Autodesk Inventor 2016',
/* authorisation */ '');

FILE_SCHEMA (('AUTOMOTIVE_DESIGN { 1 0 10303 214 3 1 1 }'));
ENDSEC;

DATA;
#10=MECHANICAL_DESIGN_GEOMETRIC_PRESENTATION_REPRESENTATION('',(#13),#243);
#11=SHAPE_REPRESENTATION_RELATIONSHIP('SRR','None',#252,#12);
#12=ADVANCED_BREP_SHAPE_REPRESENTATION('',(#14),#242);
#13=STYLED_ITEM('',(#261),#14);
#14=MANIFOLD_SOLID_BREP('Solid2',#136);
#15=PLANE('',#143);
#16=PLANE('',#147);
#17=PLANE('',#155);
#18=CYLINDRICAL_SURFACE('',#141,2.4585);
#19=CYLINDRICAL_SURFACE('',#151,6.);
#20=CYLINDRICAL_SURFACE('',#159,4.5);
#21=FACE_BOUND('',#44,.T.);
#22=FACE_BOUND('',#46,.T.);
#23=FACE_BOUND('',#48,.T.);
#24=FACE_BOUND('',#50,.T.);
#25=FACE_BOUND('',#52,.T.);
#26=FACE_BOUND('',#54,.T.);
#27=FACE_BOUND('',#56,.T.);
#28=FACE_BOUND('',#58,.T.);
#29=FACE_BOUND('',#60,.T.);
#30=FACE_BOUND('',#62,.T.);
#31=FACE_BOUND('',#64,.T.);
#32=FACE_OUTER_BOUND('',#43,.T.);
#33=FACE_OUTER_BOUND('',#45,.T.);
#34=FACE_OUTER_BOUND('',#47,.T.);
#35=FACE_OUTER_BOUND('',#49,.T.);
#36=FACE_OUTER_BOUND('',#51,.T.);
#37=FACE_OUTER_BOUND('',#53,.T.);
#38=FACE_OUTER_BOUND('',#55,.T.);
#39=FACE_OUTER_BOUND('',#57,.T.);
#40=FACE_OUTER_BOUND('',#59,.T.);
#41=FACE_OUTER_BOUND('',#61,.T.);
#42=FACE_OUTER_BOUND('',#63,.T.);
#43=EDGE_LOOP('',(#98));
#44=EDGE_LOOP('',(#99));
#45=EDGE_LOOP('',(#100));
#46=EDGE_LOOP('',(#101));
#47=EDGE_LOOP('',(#102));
#48=EDGE_LOOP('',(#103));
#49=EDGE_LOOP('',(#104));
#50=EDGE_LOOP('',(#105));
#51=EDGE_LOOP('',(#106));
#52=EDGE_LOOP('',(#107));
#53=EDGE_LOOP('',(#108));
#54=EDGE_LOOP('',(#109));
#55=EDGE_LOOP('',(#110));
#56=EDGE_LOOP('',(#111));
#57=EDGE_LOOP('',(#112));
#58=EDGE_LOOP('',(#113));
#59=EDGE_LOOP('',(#114));
#60=EDGE_LOOP('',(#115));
#61=EDGE_LOOP('',(#116));
#62=EDGE_LOOP('',(#117));
#63=EDGE_LOOP('',(#118));
#64=EDGE_LOOP('',(#119));
#65=CIRCLE('',#139,2.4585);
#66=CIRCLE('',#140,2.9585);
#67=CIRCLE('',#142,2.4585);
#68=CIRCLE('',#144,5.8);
#69=CIRCLE('',#146,2.9585);
#70=CIRCLE('',#148,4.3);
#71=CIRCLE('',#150,6.);
#72=CIRCLE('',#152,6.);
#73=CIRCLE('',#154,5.8);
#74=CIRCLE('',#156,4.5);
#75=CIRCLE('',#158,4.5);
#76=VERTEX_POINT('',#208);
#77=VERTEX_POINT('',#210);
#78=VERTEX_POINT('',#213);
#79=VERTEX_POINT('',#216);
#80=VERTEX_POINT('',#219);
#81=VERTEX_POINT('',#222);
#82=VERTEX_POINT('',#225);
#83=VERTEX_POINT('',#228);
#84=VERTEX_POINT('',#231);
#85=VERTEX_POINT('',#234);
#86=VERTEX_POINT('',#237);
#87=EDGE_CURVE('',#76,#76,#65,.T.);
#88=EDGE_CURVE('',#77,#77,#66,.T.);
#89=EDGE_CURVE('',#78,#78,#67,.T.);
#90=EDGE_CURVE('',#79,#79,#68,.T.);
#91=EDGE_CURVE('',#80,#80,#69,.T.);
#92=EDGE_CURVE('',#81,#81,#70,.T.);
#93=EDGE_CURVE('',#82,#82,#71,.T.);
#94=EDGE_CURVE('',#83,#83,#72,.T.);
#95=EDGE_CURVE('',#84,#84,#73,.T.);
#96=EDGE_CURVE('',#85,#85,#74,.T.);
#97=EDGE_CURVE('',#86,#86,#75,.T.);
#98=ORIENTED_EDGE('',*,*,#87,.T.);
#99=ORIENTED_EDGE('',*,*,#88,.T.);
#100=ORIENTED_EDGE('',*,*,#89,.F.);
#101=ORIENTED_EDGE('',*,*,#87,.F.);
#102=ORIENTED_EDGE('',*,*,#90,.F.);
#103=ORIENTED_EDGE('',*,*,#88,.F.);
#104=ORIENTED_EDGE('',*,*,#89,.T.);
#105=ORIENTED_EDGE('',*,*,#91,.T.);
#106=ORIENTED_EDGE('',*,*,#92,.F.);
#107=ORIENTED_EDGE('',*,*,#91,.F.);
#108=ORIENTED_EDGE('',*,*,#90,.T.);
#109=ORIENTED_EDGE('',*,*,#93,.T.);
#110=ORIENTED_EDGE('',*,*,#94,.F.);
#111=ORIENTED_EDGE('',*,*,#93,.F.);
#112=ORIENTED_EDGE('',*,*,#94,.T.);
#113=ORIENTED_EDGE('',*,*,#95,.T.);
#114=ORIENTED_EDGE('',*,*,#95,.F.);
#115=ORIENTED_EDGE('',*,*,#96,.F.);
#116=ORIENTED_EDGE('',*,*,#97,.T.);
#117=ORIENTED_EDGE('',*,*,#92,.T.);
#118=ORIENTED_EDGE('',*,*,#96,.T.);
#119=ORIENTED_EDGE('',*,*,#97,.F.);
#120=CONICAL_SURFACE('',#138,2.7085,45.);
#121=CONICAL_SURFACE('',#145,2.7085,44.9999999999999);
#122=CONICAL_SURFACE('',#149,5.9,45.);
#123=CONICAL_SURFACE('',#153,5.9,45.);
#124=CONICAL_SURFACE('',#157,4.4,44.9999999999999);
#125=ADVANCED_FACE('',(#32,#21),#120,.F.);
#126=ADVANCED_FACE('',(#33,#22),#18,.F.);
#127=ADVANCED_FACE('',(#34,#23),#15,.T.);
#128=ADVANCED_FACE('',(#35,#24),#121,.F.);
#129=ADVANCED_FACE('',(#36,#25),#16,.T.);
#130=ADVANCED_FACE('',(#37,#26),#122,.T.);
#131=ADVANCED_FACE('',(#38,#27),#19,.T.);
#132=ADVANCED_FACE('',(#39,#28),#123,.T.);
#133=ADVANCED_FACE('',(#40,#29),#17,.T.);
#134=ADVANCED_FACE('',(#41,#30),#124,.T.);
#135=ADVANCED_FACE('',(#42,#31),#20,.T.);
#136=CLOSED_SHELL('',(#125,#126,#127,#128,#129,#130,#131,#132,#133,#134,
#135));
#137=AXIS2_PLACEMENT_3D('placement',#206,#160,#161);
#138=AXIS2_PLACEMENT_3D('',#207,#162,#163);
#139=AXIS2_PLACEMENT_3D('',#209,#164,#165);
#140=AXIS2_PLACEMENT_3D('',#211,#166,#167);
#141=AXIS2_PLACEMENT_3D('',#212,#168,#169);
#142=AXIS2_PLACEMENT_3D('',#214,#170,#171);
#143=AXIS2_PLACEMENT_3D('',#215,#172,#173);
#144=AXIS2_PLACEMENT_3D('',#217,#174,#175);
#145=AXIS2_PLACEMENT_3D('',#218,#176,#177);
#146=AXIS2_PLACEMENT_3D('',#220,#178,#179);
#147=AXIS2_PLACEMENT_3D('',#221,#180,#181);
#148=AXIS2_PLACEMENT_3D('',#223,#182,#183);
#149=AXIS2_PLACEMENT_3D('',#224,#184,#185);
#150=AXIS2_PLACEMENT_3D('',#226,#186,#187);
#151=AXIS2_PLACEMENT_3D('',#227,#188,#189);
#152=AXIS2_PLACEMENT_3D('',#229,#190,#191);
#153=AXIS2_PLACEMENT_3D('',#230,#192,#193);
#154=AXIS2_PLACEMENT_3D('',#232,#194,#195);
#155=AXIS2_PLACEMENT_3D('',#233,#196,#197);
#156=AXIS2_PLACEMENT_3D('',#235,#198,#199);
#157=AXIS2_PLACEMENT_3D('',#236,#200,#201);
#158=AXIS2_PLACEMENT_3D('',#238,#202,#203);
#159=AXIS2_PLACEMENT_3D('',#239,#204,#205);
#160=DIRECTION('axis',(0.,0.,1.));
#161=DIRECTION('refdir',(1.,0.,0.));
#162=DIRECTION('center_axis',(0.,-1.,0.));
#163=DIRECTION('ref_axis',(-1.,0.,0.));
#164=DIRECTION('center_axis',(0.,1.,0.));
#165=DIRECTION('ref_axis',(-1.,0.,0.));
#166=DIRECTION('center_axis',(0.,-1.,0.));
#167=DIRECTION('ref_axis',(-1.,0.,0.));
#168=DIRECTION('center_axis',(0.,-1.,0.));
#169=DIRECTION('ref_axis',(1.,0.,0.));
#170=DIRECTION('center_axis',(0.,-1.,0.));
#171=DIRECTION('ref_axis',(1.,0.,0.));
#172=DIRECTION('center_axis',(0.,-1.,0.));
#173=DIRECTION('ref_axis',(0.,0.,-1.));
#174=DIRECTION('center_axis',(0.,1.,0.));
#175=DIRECTION('ref_axis',(1.,0.,0.));
#176=DIRECTION('center_axis',(0.,1.,0.));
#177=DIRECTION('ref_axis',(1.,0.,0.));
#178=DIRECTION('center_axis',(0.,1.,0.));
#179=DIRECTION('ref_axis',(1.,0.,0.));
#180=DIRECTION('center_axis',(0.,1.,0.));
#181=DIRECTION('ref_axis',(0.,0.,1.));
#182=DIRECTION('center_axis',(0.,-1.,0.));
#183=DIRECTION('ref_axis',(1.,0.,0.));
#184=DIRECTION('center_axis',(0.,1.,0.));
#185=DIRECTION('ref_axis',(1.,0.,0.));
#186=DIRECTION('center_axis',(0.,-1.,0.));
#187=DIRECTION('ref_axis',(1.,0.,0.));
#188=DIRECTION('center_axis',(0.,1.,0.));
#189=DIRECTION('ref_axis',(-1.,0.,0.));
#190=DIRECTION('center_axis',(0.,1.,0.));
#191=DIRECTION('ref_axis',(1.,0.,0.));
#192=DIRECTION('center_axis',(0.,-1.,0.));
#193=DIRECTION('ref_axis',(1.,0.,0.));
#194=DIRECTION('center_axis',(0.,-1.,0.));
#195=DIRECTION('ref_axis',(1.,0.,0.));
#196=DIRECTION('center_axis',(0.,1.,0.));
#197=DIRECTION('ref_axis',(0.,0.,1.));
#198=DIRECTION('center_axis',(0.,1.,0.));
#199=DIRECTION('ref_axis',(-1.,0.,0.));
#200=DIRECTION('center_axis',(0.,-1.,0.));
#201=DIRECTION('ref_axis',(1.,0.,0.));
#202=DIRECTION('center_axis',(0.,1.,0.));
#203=DIRECTION('ref_axis',(1.,0.,0.));
#204=DIRECTION('center_axis',(0.,1.,0.));
#205=DIRECTION('ref_axis',(-1.,0.,0.));
#206=CARTESIAN_POINT('',(0.,0.,0.));
#207=CARTESIAN_POINT('Origin',(0.,0.25,0.));
#208=CARTESIAN_POINT('',(2.4585,0.5,-3.01079415570377E-16));
#209=CARTESIAN_POINT('Origin',(0.,0.5,0.));
#210=CARTESIAN_POINT('',(2.9585,0.,3.62311755527744E-16));
#211=CARTESIAN_POINT('Origin',(0.,0.,0.));
#212=CARTESIAN_POINT('Origin',(0.,17.4355957741627,0.));
#213=CARTESIAN_POINT('',(-2.4585,3.5,-3.01079415570377E-16));
#214=CARTESIAN_POINT('Origin',(0.,3.5,0.));
#215=CARTESIAN_POINT('Origin',(-3.,0.,0.));
#216=CARTESIAN_POINT('',(-5.8,0.,7.10295143505465E-16));
#217=CARTESIAN_POINT('Origin',(0.,0.,0.));
#218=CARTESIAN_POINT('Origin',(0.,3.75,0.));
#219=CARTESIAN_POINT('',(-2.9585,4.,3.62311755527744E-16));
#220=CARTESIAN_POINT('Origin',(0.,4.,0.));
#221=CARTESIAN_POINT('Origin',(-2.25,4.,0.));
#222=CARTESIAN_POINT('',(-4.3,4.,-5.26598123633362E-16));
#223=CARTESIAN_POINT('Origin',(0.,4.,0.));
#224=CARTESIAN_POINT('Origin',(0.,0.1,0.));
#225=CARTESIAN_POINT('',(-6.,0.2,-7.34788079488412E-16));
#226=CARTESIAN_POINT('Origin',(0.,0.2,0.));
#227=CARTESIAN_POINT('Origin',(0.,0.999999999999999,0.));
#228=CARTESIAN_POINT('',(-6.,1.8,7.34788079488412E-16));
#229=CARTESIAN_POINT('Origin',(0.,1.8,0.));
#230=CARTESIAN_POINT('Origin',(0.,1.9,0.));
#231=CARTESIAN_POINT('',(-5.8,2.,-7.10295143505465E-16));
#232=CARTESIAN_POINT('Origin',(0.,2.,0.));
#233=CARTESIAN_POINT('Origin',(-5.25,2.,0.));
#234=CARTESIAN_POINT('',(-4.5,2.,0.));
#235=CARTESIAN_POINT('Origin',(0.,2.,0.));
#236=CARTESIAN_POINT('Origin',(0.,3.9,0.));
#237=CARTESIAN_POINT('',(-4.5,3.8,5.51091059616309E-16));
#238=CARTESIAN_POINT('Origin',(0.,3.8,0.));
#239=CARTESIAN_POINT('Origin',(0.,3.,0.));
#240=UNCERTAINTY_MEASURE_WITH_UNIT(LENGTH_MEASURE(0.01),#244,
'DISTANCE_ACCURACY_VALUE',
'Maximum model space distance between geometric entities at asserted c
onnectivities');
#241=UNCERTAINTY_MEASURE_WITH_UNIT(LENGTH_MEASURE(1.E-6),#244,
'DISTANCE_ACCURACY_VALUE',
'Maximum model space distance between geometric entities at asserted c
onnectivities');
#242=(
GEOMETRIC_REPRESENTATION_CONTEXT(3)
GLOBAL_UNCERTAINTY_ASSIGNED_CONTEXT((#240))
GLOBAL_UNIT_ASSIGNED_CONTEXT((#244,#247,#245))
REPRESENTATION_CONTEXT('','3D')
);
#243=(
GEOMETRIC_REPRESENTATION_CONTEXT(3)
GLOBAL_UNCERTAINTY_ASSIGNED_CONTEXT((#241))
GLOBAL_UNIT_ASSIGNED_CONTEXT((#244,#247,#245))
REPRESENTATION_CONTEXT('','3D')
);
#244=(
LENGTH_UNIT()
NAMED_UNIT(*)
SI_UNIT(.MILLI.,.METRE.)
);
#245=(
NAMED_UNIT(*)
SI_UNIT($,.STERADIAN.)
SOLID_ANGLE_UNIT()
);
#246=DIMENSIONAL_EXPONENTS(0.,0.,0.,0.,0.,0.,0.);
#247=(
CONVERSION_BASED_UNIT('degree',#249)
NAMED_UNIT(#246)
PLANE_ANGLE_UNIT()
);
#248=(
NAMED_UNIT(*)
PLANE_ANGLE_UNIT()
SI_UNIT($,.RADIAN.)
);
#249=PLANE_ANGLE_MEASURE_WITH_UNIT(PLANE_ANGLE_MEASURE(0.01745329252),#248);
#250=SHAPE_DEFINITION_REPRESENTATION(#251,#252);
#251=PRODUCT_DEFINITION_SHAPE('',$,#254);
#252=SHAPE_REPRESENTATION('',(#137),#242);
#253=PRODUCT_DEFINITION_CONTEXT('part definition',#258,'design');
#254=PRODUCT_DEFINITION('CAD_48885','CAD_48885',#255,#253);
#255=PRODUCT_DEFINITION_FORMATION('',$,#260);
#256=PRODUCT_RELATED_PRODUCT_CATEGORY('CAD_48885','CAD_48885',(#260));
#257=APPLICATION_PROTOCOL_DEFINITION('international standard',
'automotive_design',2009,#258);
#258=APPLICATION_CONTEXT(
'Core Data for Automotive Mechanical Design Process');
#259=PRODUCT_CONTEXT('part definition',#258,'mechanical');
#260=PRODUCT('CAD_48885','CAD_48885',$,(#259));
#261=PRESENTATION_STYLE_ASSIGNMENT((#262));
#262=SURFACE_STYLE_USAGE(.BOTH.,#263);
#263=SURFACE_SIDE_STYLE('',(#264));
#264=SURFACE_STYLE_FILL_AREA(#265);
#265=FILL_AREA_STYLE('',(#266));
#266=FILL_AREA_STYLE_COLOUR('',#267);
#267=COLOUR_RGB('',0.63921568627451,0.63921568627451,0.686274509803922);
ENDSEC;
END-ISO-10303-21;
