ISO-10303-21;
HEADER;
/* Generated by software containing ST-Developer
 * from STEP Tools, Inc. (www.steptools.com) 
 */

FILE_DESCRIPTION(
/* description */ ('Square Nut'),
/* implementation_level */ '2;1');

FILE_NAME(
/* name */ 
'X:\\VIRI ZA WEB\\CAD DATOTEKE\\LINEARNE ENOTE UNIMOTION\\DODATNA OPRE
MA ZA LINEARNE ENOTE\\POVEZOVALNI ELEMENTI\\MATICE\\MATICA KVADRATNA M
5 DIN562\\izvoz\\CAD_40768.stp',
/* time_stamp */ '2016-04-16T08:43:33+02:00',
/* author */ ('Hypex'),
/* organization */ ('Hypex'),
/* preprocessor_version */ 'ST-DEVELOPER v16.1',
/* originating_system */ 'Autodesk Inventor 2016',
/* authorisation */ '');

FILE_SCHEMA (('AUTOMOTIVE_DESIGN { 1 0 10303 214 3 1 1 }'));
ENDSEC;

DATA;
#10=MECHANICAL_DESIGN_GEOMETRIC_PRESENTATION_REPRESENTATION('',(#13),#245);
#11=SHAPE_REPRESENTATION_RELATIONSHIP('SRR','None',#254,#12);
#12=ADVANCED_BREP_SHAPE_REPRESENTATION('',(#14),#244);
#13=STYLED_ITEM('',(#263),#14);
#14=MANIFOLD_SOLID_BREP('Solid1',#149);
#15=LINE('',#216,#27);
#16=LINE('',#218,#28);
#17=LINE('',#220,#29);
#18=LINE('',#221,#30);
#19=LINE('',#228,#31);
#20=LINE('',#230,#32);
#21=LINE('',#232,#33);
#22=LINE('',#233,#34);
#23=LINE('',#235,#35);
#24=LINE('',#236,#36);
#25=LINE('',#238,#37);
#26=LINE('',#240,#38);
#27=VECTOR('',#178,8.);
#28=VECTOR('',#179,8.);
#29=VECTOR('',#180,8.);
#30=VECTOR('',#181,8.);
#31=VECTOR('',#188,8.);
#32=VECTOR('',#189,8.);
#33=VECTOR('',#190,8.);
#34=VECTOR('',#191,8.);
#35=VECTOR('',#194,2.7);
#36=VECTOR('',#195,2.7);
#37=VECTOR('',#198,2.7);
#38=VECTOR('',#201,2.7);
#39=PLANE('',#156);
#40=PLANE('',#159);
#41=PLANE('',#160);
#42=PLANE('',#161);
#43=PLANE('',#162);
#44=PLANE('',#163);
#45=CYLINDRICAL_SURFACE('',#154,2.067);
#46=FACE_BOUND('',#61,.T.);
#47=FACE_BOUND('',#63,.T.);
#48=FACE_BOUND('',#65,.T.);
#49=FACE_BOUND('',#67,.T.);
#50=FACE_BOUND('',#69,.T.);
#51=FACE_OUTER_BOUND('',#60,.T.);
#52=FACE_OUTER_BOUND('',#62,.T.);
#53=FACE_OUTER_BOUND('',#64,.T.);
#54=FACE_OUTER_BOUND('',#66,.T.);
#55=FACE_OUTER_BOUND('',#68,.T.);
#56=FACE_OUTER_BOUND('',#70,.T.);
#57=FACE_OUTER_BOUND('',#71,.T.);
#58=FACE_OUTER_BOUND('',#72,.T.);
#59=FACE_OUTER_BOUND('',#73,.T.);
#60=EDGE_LOOP('',(#106));
#61=EDGE_LOOP('',(#107));
#62=EDGE_LOOP('',(#108));
#63=EDGE_LOOP('',(#109));
#64=EDGE_LOOP('',(#110,#111,#112,#113));
#65=EDGE_LOOP('',(#114));
#66=EDGE_LOOP('',(#115));
#67=EDGE_LOOP('',(#116));
#68=EDGE_LOOP('',(#117,#118,#119,#120));
#69=EDGE_LOOP('',(#121));
#70=EDGE_LOOP('',(#122,#123,#124,#125));
#71=EDGE_LOOP('',(#126,#127,#128,#129));
#72=EDGE_LOOP('',(#130,#131,#132,#133));
#73=EDGE_LOOP('',(#134,#135,#136,#137));
#74=CIRCLE('',#152,2.067);
#75=CIRCLE('',#153,2.50001270189222);
#76=CIRCLE('',#155,2.067);
#77=CIRCLE('',#158,2.50001270189222);
#78=VERTEX_POINT('',#206);
#79=VERTEX_POINT('',#208);
#80=VERTEX_POINT('',#211);
#81=VERTEX_POINT('',#214);
#82=VERTEX_POINT('',#215);
#83=VERTEX_POINT('',#217);
#84=VERTEX_POINT('',#219);
#85=VERTEX_POINT('',#223);
#86=VERTEX_POINT('',#226);
#87=VERTEX_POINT('',#227);
#88=VERTEX_POINT('',#229);
#89=VERTEX_POINT('',#231);
#90=EDGE_CURVE('',#78,#78,#74,.T.);
#91=EDGE_CURVE('',#79,#79,#75,.T.);
#92=EDGE_CURVE('',#80,#80,#76,.T.);
#93=EDGE_CURVE('',#81,#82,#15,.T.);
#94=EDGE_CURVE('',#83,#81,#16,.T.);
#95=EDGE_CURVE('',#84,#83,#17,.T.);
#96=EDGE_CURVE('',#82,#84,#18,.T.);
#97=EDGE_CURVE('',#85,#85,#77,.T.);
#98=EDGE_CURVE('',#86,#87,#19,.T.);
#99=EDGE_CURVE('',#87,#88,#20,.T.);
#100=EDGE_CURVE('',#88,#89,#21,.T.);
#101=EDGE_CURVE('',#89,#86,#22,.T.);
#102=EDGE_CURVE('',#88,#82,#23,.T.);
#103=EDGE_CURVE('',#87,#81,#24,.T.);
#104=EDGE_CURVE('',#89,#84,#25,.T.);
#105=EDGE_CURVE('',#86,#83,#26,.T.);
#106=ORIENTED_EDGE('',*,*,#90,.T.);
#107=ORIENTED_EDGE('',*,*,#91,.T.);
#108=ORIENTED_EDGE('',*,*,#92,.F.);
#109=ORIENTED_EDGE('',*,*,#90,.F.);
#110=ORIENTED_EDGE('',*,*,#93,.F.);
#111=ORIENTED_EDGE('',*,*,#94,.F.);
#112=ORIENTED_EDGE('',*,*,#95,.F.);
#113=ORIENTED_EDGE('',*,*,#96,.F.);
#114=ORIENTED_EDGE('',*,*,#91,.F.);
#115=ORIENTED_EDGE('',*,*,#92,.T.);
#116=ORIENTED_EDGE('',*,*,#97,.T.);
#117=ORIENTED_EDGE('',*,*,#98,.T.);
#118=ORIENTED_EDGE('',*,*,#99,.T.);
#119=ORIENTED_EDGE('',*,*,#100,.T.);
#120=ORIENTED_EDGE('',*,*,#101,.T.);
#121=ORIENTED_EDGE('',*,*,#97,.F.);
#122=ORIENTED_EDGE('',*,*,#93,.T.);
#123=ORIENTED_EDGE('',*,*,#102,.F.);
#124=ORIENTED_EDGE('',*,*,#99,.F.);
#125=ORIENTED_EDGE('',*,*,#103,.T.);
#126=ORIENTED_EDGE('',*,*,#96,.T.);
#127=ORIENTED_EDGE('',*,*,#104,.F.);
#128=ORIENTED_EDGE('',*,*,#100,.F.);
#129=ORIENTED_EDGE('',*,*,#102,.T.);
#130=ORIENTED_EDGE('',*,*,#95,.T.);
#131=ORIENTED_EDGE('',*,*,#105,.F.);
#132=ORIENTED_EDGE('',*,*,#101,.F.);
#133=ORIENTED_EDGE('',*,*,#104,.T.);
#134=ORIENTED_EDGE('',*,*,#94,.T.);
#135=ORIENTED_EDGE('',*,*,#103,.F.);
#136=ORIENTED_EDGE('',*,*,#98,.F.);
#137=ORIENTED_EDGE('',*,*,#105,.T.);
#138=CONICAL_SURFACE('',#151,2.28350635094611,60.0000000000001);
#139=CONICAL_SURFACE('',#157,2.28350635094611,60.0000000000001);
#140=ADVANCED_FACE('',(#51,#46),#138,.F.);
#141=ADVANCED_FACE('',(#52,#47),#45,.F.);
#142=ADVANCED_FACE('',(#53,#48),#39,.T.);
#143=ADVANCED_FACE('',(#54,#49),#139,.F.);
#144=ADVANCED_FACE('',(#55,#50),#40,.F.);
#145=ADVANCED_FACE('',(#56),#41,.T.);
#146=ADVANCED_FACE('',(#57),#42,.T.);
#147=ADVANCED_FACE('',(#58),#43,.T.);
#148=ADVANCED_FACE('',(#59),#44,.T.);
#149=CLOSED_SHELL('',(#140,#141,#142,#143,#144,#145,#146,#147,#148));
#150=AXIS2_PLACEMENT_3D('placement',#204,#164,#165);
#151=AXIS2_PLACEMENT_3D('',#205,#166,#167);
#152=AXIS2_PLACEMENT_3D('',#207,#168,#169);
#153=AXIS2_PLACEMENT_3D('',#209,#170,#171);
#154=AXIS2_PLACEMENT_3D('',#210,#172,#173);
#155=AXIS2_PLACEMENT_3D('',#212,#174,#175);
#156=AXIS2_PLACEMENT_3D('',#213,#176,#177);
#157=AXIS2_PLACEMENT_3D('',#222,#182,#183);
#158=AXIS2_PLACEMENT_3D('',#224,#184,#185);
#159=AXIS2_PLACEMENT_3D('',#225,#186,#187);
#160=AXIS2_PLACEMENT_3D('',#234,#192,#193);
#161=AXIS2_PLACEMENT_3D('',#237,#196,#197);
#162=AXIS2_PLACEMENT_3D('',#239,#199,#200);
#163=AXIS2_PLACEMENT_3D('',#241,#202,#203);
#164=DIRECTION('axis',(0.,0.,1.));
#165=DIRECTION('refdir',(1.,0.,0.));
#166=DIRECTION('center_axis',(1.,0.,0.));
#167=DIRECTION('ref_axis',(0.,0.,1.));
#168=DIRECTION('center_axis',(-1.,0.,0.));
#169=DIRECTION('ref_axis',(0.,0.,1.));
#170=DIRECTION('center_axis',(1.,0.,0.));
#171=DIRECTION('ref_axis',(0.,0.,1.));
#172=DIRECTION('center_axis',(-1.,0.,0.));
#173=DIRECTION('ref_axis',(0.,0.,1.));
#174=DIRECTION('center_axis',(1.,0.,0.));
#175=DIRECTION('ref_axis',(0.,0.,-1.));
#176=DIRECTION('center_axis',(1.,0.,0.));
#177=DIRECTION('ref_axis',(0.,0.,-1.));
#178=DIRECTION('',(0.,0.707106781186547,0.707106781186548));
#179=DIRECTION('',(0.,-0.707106781186548,0.707106781186547));
#180=DIRECTION('',(0.,-0.707106781186547,-0.707106781186548));
#181=DIRECTION('',(0.,0.707106781186548,-0.707106781186547));
#182=DIRECTION('center_axis',(-1.,0.,0.));
#183=DIRECTION('ref_axis',(0.,0.,-1.));
#184=DIRECTION('center_axis',(-1.,0.,0.));
#185=DIRECTION('ref_axis',(0.,0.,-1.));
#186=DIRECTION('center_axis',(1.,0.,0.));
#187=DIRECTION('ref_axis',(0.,0.,-1.));
#188=DIRECTION('',(0.,-0.707106781186548,0.707106781186547));
#189=DIRECTION('',(0.,0.707106781186547,0.707106781186548));
#190=DIRECTION('',(0.,0.707106781186548,-0.707106781186547));
#191=DIRECTION('',(0.,-0.707106781186547,-0.707106781186548));
#192=DIRECTION('center_axis',(0.,-0.707106781186548,0.707106781186547));
#193=DIRECTION('ref_axis',(1.,0.,0.));
#194=DIRECTION('',(1.,0.,0.));
#195=DIRECTION('',(1.,0.,0.));
#196=DIRECTION('center_axis',(0.,0.707106781186547,0.707106781186548));
#197=DIRECTION('ref_axis',(1.,0.,0.));
#198=DIRECTION('',(1.,0.,0.));
#199=DIRECTION('center_axis',(0.,0.707106781186548,-0.707106781186547));
#200=DIRECTION('ref_axis',(-1.,0.,0.));
#201=DIRECTION('',(1.,0.,0.));
#202=DIRECTION('center_axis',(0.,-0.707106781186547,-0.707106781186548));
#203=DIRECTION('ref_axis',(-1.,0.,0.));
#204=CARTESIAN_POINT('',(0.,0.,0.));
#205=CARTESIAN_POINT('Origin',(2.575,0.,0.));
#206=CARTESIAN_POINT('',(2.45,-2.53126133335085E-16,-2.067));
#207=CARTESIAN_POINT('Origin',(2.45,0.,0.));
#208=CARTESIAN_POINT('',(2.7,3.06153143937386E-16,-2.50001270189222));
#209=CARTESIAN_POINT('Origin',(2.7,0.,0.));
#210=CARTESIAN_POINT('Origin',(16.2262133598693,0.,0.));
#211=CARTESIAN_POINT('',(0.249999999999999,-2.53126133335085E-16,2.067));
#212=CARTESIAN_POINT('Origin',(0.249999999999999,0.,0.));
#213=CARTESIAN_POINT('Origin',(2.7,-2.77555756156289E-16,6.93889390390723E-16));
#214=CARTESIAN_POINT('',(2.7,-5.65685424949238,-1.9492058869882E-15));
#215=CARTESIAN_POINT('',(2.7,-3.0926180295435E-15,5.65685424949238));
#216=CARTESIAN_POINT('',(2.7,-5.65685424949238,-1.9492058869882E-15));
#217=CARTESIAN_POINT('',(2.7,0.,-5.65685424949238));
#218=CARTESIAN_POINT('',(2.7,0.,-5.65685424949238));
#219=CARTESIAN_POINT('',(2.7,5.65685424949238,4.23603017209879E-15));
#220=CARTESIAN_POINT('',(2.7,5.65685424949238,4.23603017209879E-15));
#221=CARTESIAN_POINT('',(2.7,-3.0926180295435E-15,5.65685424949238));
#222=CARTESIAN_POINT('Origin',(0.125,0.,0.));
#223=CARTESIAN_POINT('',(0.,3.06153143937386E-16,2.50001270189222));
#224=CARTESIAN_POINT('Origin',(0.,0.,0.));
#225=CARTESIAN_POINT('Origin',(0.,-5.55111512312578E-16,5.55111512312578E-16));
#226=CARTESIAN_POINT('',(0.,0.,-5.65685424949238));
#227=CARTESIAN_POINT('',(0.,-5.65685424949238,-1.9492058869882E-15));
#228=CARTESIAN_POINT('',(0.,0.,-5.65685424949238));
#229=CARTESIAN_POINT('',(0.,-3.0926180295435E-15,5.65685424949238));
#230=CARTESIAN_POINT('',(0.,-5.65685424949238,-1.9492058869882E-15));
#231=CARTESIAN_POINT('',(0.,5.65685424949238,4.23603017209879E-15));
#232=CARTESIAN_POINT('',(0.,-3.0926180295435E-15,5.65685424949238));
#233=CARTESIAN_POINT('',(0.,5.65685424949238,4.23603017209879E-15));
#234=CARTESIAN_POINT('Origin',(0.,-5.65685424949238,-1.9492058869882E-15));
#235=CARTESIAN_POINT('',(0.,-3.0926180295435E-15,5.65685424949238));
#236=CARTESIAN_POINT('',(0.,-5.65685424949238,-1.9492058869882E-15));
#237=CARTESIAN_POINT('Origin',(0.,-3.0926180295435E-15,5.65685424949238));
#238=CARTESIAN_POINT('',(0.,5.65685424949238,4.23603017209879E-15));
#239=CARTESIAN_POINT('Origin',(0.,5.65685424949238,4.23603017209879E-15));
#240=CARTESIAN_POINT('',(0.,0.,-5.65685424949238));
#241=CARTESIAN_POINT('Origin',(0.,0.,-5.65685424949238));
#242=UNCERTAINTY_MEASURE_WITH_UNIT(LENGTH_MEASURE(0.01),#246,
'DISTANCE_ACCURACY_VALUE',
'Maximum model space distance between geometric entities at asserted c
onnectivities');
#243=UNCERTAINTY_MEASURE_WITH_UNIT(LENGTH_MEASURE(1.E-6),#246,
'DISTANCE_ACCURACY_VALUE',
'Maximum model space distance between geometric entities at asserted c
onnectivities');
#244=(
GEOMETRIC_REPRESENTATION_CONTEXT(3)
GLOBAL_UNCERTAINTY_ASSIGNED_CONTEXT((#242))
GLOBAL_UNIT_ASSIGNED_CONTEXT((#246,#249,#247))
REPRESENTATION_CONTEXT('','3D')
);
#245=(
GEOMETRIC_REPRESENTATION_CONTEXT(3)
GLOBAL_UNCERTAINTY_ASSIGNED_CONTEXT((#243))
GLOBAL_UNIT_ASSIGNED_CONTEXT((#246,#249,#247))
REPRESENTATION_CONTEXT('','3D')
);
#246=(
LENGTH_UNIT()
NAMED_UNIT(*)
SI_UNIT(.MILLI.,.METRE.)
);
#247=(
NAMED_UNIT(*)
SI_UNIT($,.STERADIAN.)
SOLID_ANGLE_UNIT()
);
#248=DIMENSIONAL_EXPONENTS(0.,0.,0.,0.,0.,0.,0.);
#249=(
CONVERSION_BASED_UNIT('degree',#251)
NAMED_UNIT(#248)
PLANE_ANGLE_UNIT()
);
#250=(
NAMED_UNIT(*)
PLANE_ANGLE_UNIT()
SI_UNIT($,.RADIAN.)
);
#251=PLANE_ANGLE_MEASURE_WITH_UNIT(PLANE_ANGLE_MEASURE(0.01745329252),#250);
#252=SHAPE_DEFINITION_REPRESENTATION(#253,#254);
#253=PRODUCT_DEFINITION_SHAPE('',$,#256);
#254=SHAPE_REPRESENTATION('',(#150),#244);
#255=PRODUCT_DEFINITION_CONTEXT('part definition',#260,'design');
#256=PRODUCT_DEFINITION('CAD_40768','CAD_40768',#257,#255);
#257=PRODUCT_DEFINITION_FORMATION('',$,#262);
#258=PRODUCT_RELATED_PRODUCT_CATEGORY('CAD_40768','CAD_40768',(#262));
#259=APPLICATION_PROTOCOL_DEFINITION('international standard',
'automotive_design',2009,#260);
#260=APPLICATION_CONTEXT(
'Core Data for Automotive Mechanical Design Process');
#261=PRODUCT_CONTEXT('part definition',#260,'mechanical');
#262=PRODUCT('CAD_40768','CAD_40768',$,(#261));
#263=PRESENTATION_STYLE_ASSIGNMENT((#264));
#264=SURFACE_STYLE_USAGE(.BOTH.,#265);
#265=SURFACE_SIDE_STYLE('',(#266));
#266=SURFACE_STYLE_FILL_AREA(#267);
#267=FILL_AREA_STYLE('',(#268));
#268=FILL_AREA_STYLE_COLOUR('',#269);
#269=COLOUR_RGB('',0.63921568627451,0.63921568627451,0.686274509803922);
ENDSEC;
END-ISO-10303-21;
