ISO-10303-21;
HEADER;
/* Generated by software containing ST-Developer
 * from STEP Tools, Inc. (www.steptools.com) 
 */

FILE_DESCRIPTION(
/* description */ (''),
/* implementation_level */ '2;1');

FILE_NAME(
/* name */ 
'X:\\VIRI ZA WEB\\CAD DATOTEKE\\ELEKTRI\X2\010C\X0\NI CILINDRI PNCE\\D
ODATNA OPREMA ELEKTRI\X2\010C\X0\NI CILINDRI\\PRITRDILA\\KSZ\\izvoz\\C
AD_5231.stp',
/* time_stamp */ '2016-06-08T16:37:06+02:00',
/* author */ ('Hypex'),
/* organization */ ('Hypex'),
/* preprocessor_version */ 'ST-DEVELOPER v16.1',
/* originating_system */ 'Autodesk Inventor 2016',
/* authorisation */ '');

FILE_SCHEMA (('AUTOMOTIVE_DESIGN { 1 0 10303 214 3 1 1 }'));
ENDSEC;

DATA;
#10=MECHANICAL_DESIGN_GEOMETRIC_PRESENTATION_REPRESENTATION('',(#326,#327,
#328,#329,#330,#331,#332,#333,#334,#339,#335,#336,#337,#338,#340,#341,#342,
#343,#344,#345,#346,#347),#608);
#11=SHAPE_REPRESENTATION_RELATIONSHIP('SRR','None',#617,#12);
#12=ADVANCED_BREP_SHAPE_REPRESENTATION('',(#13),#607);
#13=MANIFOLD_SOLID_BREP('Solid1',#369);
#14=CONICAL_SURFACE('',#398,8.,45.);
#15=CONICAL_SURFACE('',#402,7.188,45.);
#16=CYLINDRICAL_SURFACE('',#375,11.);
#17=CYLINDRICAL_SURFACE('',#384,17.);
#18=CYLINDRICAL_SURFACE('',#400,7.188);
#19=CYLINDRICAL_SURFACE('',#407,3.3);
#20=CYLINDRICAL_SURFACE('',#408,3.3);
#21=CYLINDRICAL_SURFACE('',#409,3.3);
#22=CYLINDRICAL_SURFACE('',#410,3.3);
#23=FACE_BOUND('',#66,.T.);
#24=FACE_BOUND('',#68,.T.);
#25=FACE_BOUND('',#72,.T.);
#26=FACE_BOUND('',#74,.T.);
#27=FACE_BOUND('',#76,.T.);
#28=FACE_BOUND('',#77,.T.);
#29=FACE_BOUND('',#78,.T.);
#30=FACE_BOUND('',#79,.T.);
#31=FACE_BOUND('',#80,.T.);
#32=FACE_BOUND('',#82,.T.);
#33=FACE_BOUND('',#83,.T.);
#34=FACE_BOUND('',#84,.T.);
#35=FACE_BOUND('',#85,.T.);
#36=FACE_BOUND('',#86,.T.);
#37=FACE_BOUND('',#90,.T.);
#38=FACE_BOUND('',#92,.T.);
#39=FACE_BOUND('',#94,.T.);
#40=FACE_BOUND('',#100,.T.);
#41=FACE_BOUND('',#102,.T.);
#42=FACE_BOUND('',#104,.T.);
#43=FACE_BOUND('',#106,.T.);
#44=FACE_OUTER_BOUND('',#65,.T.);
#45=FACE_OUTER_BOUND('',#67,.T.);
#46=FACE_OUTER_BOUND('',#69,.T.);
#47=FACE_OUTER_BOUND('',#70,.T.);
#48=FACE_OUTER_BOUND('',#71,.T.);
#49=FACE_OUTER_BOUND('',#73,.T.);
#50=FACE_OUTER_BOUND('',#75,.T.);
#51=FACE_OUTER_BOUND('',#81,.T.);
#52=FACE_OUTER_BOUND('',#87,.T.);
#53=FACE_OUTER_BOUND('',#88,.T.);
#54=FACE_OUTER_BOUND('',#89,.T.);
#55=FACE_OUTER_BOUND('',#91,.T.);
#56=FACE_OUTER_BOUND('',#93,.T.);
#57=FACE_OUTER_BOUND('',#95,.T.);
#58=FACE_OUTER_BOUND('',#96,.T.);
#59=FACE_OUTER_BOUND('',#97,.T.);
#60=FACE_OUTER_BOUND('',#98,.T.);
#61=FACE_OUTER_BOUND('',#99,.T.);
#62=FACE_OUTER_BOUND('',#101,.T.);
#63=FACE_OUTER_BOUND('',#103,.T.);
#64=FACE_OUTER_BOUND('',#105,.T.);
#65=EDGE_LOOP('',(#236,#237,#238,#239));
#66=EDGE_LOOP('',(#240));
#67=EDGE_LOOP('',(#241));
#68=EDGE_LOOP('',(#242,#243,#244,#245,#246,#247,#248,#249));
#69=EDGE_LOOP('',(#250,#251,#252,#253));
#70=EDGE_LOOP('',(#254,#255,#256,#257));
#71=EDGE_LOOP('',(#258));
#72=EDGE_LOOP('',(#259));
#73=EDGE_LOOP('',(#260));
#74=EDGE_LOOP('',(#261));
#75=EDGE_LOOP('',(#262,#263,#264,#265));
#76=EDGE_LOOP('',(#266));
#77=EDGE_LOOP('',(#267));
#78=EDGE_LOOP('',(#268));
#79=EDGE_LOOP('',(#269));
#80=EDGE_LOOP('',(#270));
#81=EDGE_LOOP('',(#271,#272,#273,#274));
#82=EDGE_LOOP('',(#275));
#83=EDGE_LOOP('',(#276));
#84=EDGE_LOOP('',(#277));
#85=EDGE_LOOP('',(#278));
#86=EDGE_LOOP('',(#279));
#87=EDGE_LOOP('',(#280,#281,#282,#283));
#88=EDGE_LOOP('',(#284,#285));
#89=EDGE_LOOP('',(#286));
#90=EDGE_LOOP('',(#287));
#91=EDGE_LOOP('',(#288));
#92=EDGE_LOOP('',(#289));
#93=EDGE_LOOP('',(#290));
#94=EDGE_LOOP('',(#291));
#95=EDGE_LOOP('',(#292,#293));
#96=EDGE_LOOP('',(#294,#295,#296,#297));
#97=EDGE_LOOP('',(#298,#299,#300,#301));
#98=EDGE_LOOP('',(#302,#303,#304,#305));
#99=EDGE_LOOP('',(#306));
#100=EDGE_LOOP('',(#307));
#101=EDGE_LOOP('',(#308));
#102=EDGE_LOOP('',(#309));
#103=EDGE_LOOP('',(#310));
#104=EDGE_LOOP('',(#311));
#105=EDGE_LOOP('',(#312));
#106=EDGE_LOOP('',(#313));
#107=CIRCLE('',#372,11.);
#108=CIRCLE('',#373,11.);
#109=CIRCLE('',#374,8.05000000000001);
#110=CIRCLE('',#376,11.);
#111=CIRCLE('',#377,11.);
#112=CIRCLE('',#378,11.);
#113=CIRCLE('',#382,17.);
#114=CIRCLE('',#383,7.95);
#115=CIRCLE('',#385,17.);
#116=CIRCLE('',#387,3.3);
#117=CIRCLE('',#388,3.3);
#118=CIRCLE('',#389,3.3);
#119=CIRCLE('',#390,3.3);
#120=CIRCLE('',#392,3.3);
#121=CIRCLE('',#393,3.3);
#122=CIRCLE('',#394,3.3);
#123=CIRCLE('',#395,3.3);
#124=CIRCLE('',#399,7.188);
#125=CIRCLE('',#401,7.188);
#126=LINE('',#517,#146);
#127=LINE('',#521,#147);
#128=LINE('',#529,#148);
#129=LINE('',#532,#149);
#130=LINE('',#534,#150);
#131=LINE('',#537,#151);
#132=LINE('',#539,#152);
#133=LINE('',#541,#153);
#134=LINE('',#553,#154);
#135=LINE('',#555,#155);
#136=LINE('',#557,#156);
#137=LINE('',#558,#157);
#138=LINE('',#570,#158);
#139=LINE('',#572,#159);
#140=LINE('',#574,#160);
#141=LINE('',#575,#161);
#142=LINE('',#585,#162);
#143=LINE('',#586,#163);
#144=LINE('',#597,#164);
#145=LINE('',#599,#165);
#146=VECTOR('',#415,11.0905365064094);
#147=VECTOR('',#418,11.0905365064094);
#148=VECTOR('',#427,10.05);
#149=VECTOR('',#430,10.05);
#150=VECTOR('',#431,10.05);
#151=VECTOR('',#434,10.05);
#152=VECTOR('',#437,11.0905365064094);
#153=VECTOR('',#440,11.0905365064094);
#154=VECTOR('',#453,45.);
#155=VECTOR('',#454,60.);
#156=VECTOR('',#455,45.);
#157=VECTOR('',#456,60.);
#158=VECTOR('',#467,45.);
#159=VECTOR('',#468,60.);
#160=VECTOR('',#469,45.);
#161=VECTOR('',#470,60.);
#162=VECTOR('',#481,12.);
#163=VECTOR('',#482,12.);
#164=VECTOR('',#499,12.);
#165=VECTOR('',#502,12.);
#166=VERTEX_POINT('',#515);
#167=VERTEX_POINT('',#516);
#168=VERTEX_POINT('',#518);
#169=VERTEX_POINT('',#520);
#170=VERTEX_POINT('',#523);
#171=VERTEX_POINT('',#526);
#172=VERTEX_POINT('',#528);
#173=VERTEX_POINT('',#530);
#174=VERTEX_POINT('',#533);
#175=VERTEX_POINT('',#535);
#176=VERTEX_POINT('',#543);
#177=VERTEX_POINT('',#545);
#178=VERTEX_POINT('',#548);
#179=VERTEX_POINT('',#551);
#180=VERTEX_POINT('',#552);
#181=VERTEX_POINT('',#554);
#182=VERTEX_POINT('',#556);
#183=VERTEX_POINT('',#559);
#184=VERTEX_POINT('',#561);
#185=VERTEX_POINT('',#563);
#186=VERTEX_POINT('',#565);
#187=VERTEX_POINT('',#568);
#188=VERTEX_POINT('',#569);
#189=VERTEX_POINT('',#571);
#190=VERTEX_POINT('',#573);
#191=VERTEX_POINT('',#576);
#192=VERTEX_POINT('',#578);
#193=VERTEX_POINT('',#580);
#194=VERTEX_POINT('',#582);
#195=VERTEX_POINT('',#589);
#196=VERTEX_POINT('',#592);
#197=EDGE_CURVE('',#166,#167,#126,.T.);
#198=EDGE_CURVE('',#168,#166,#107,.T.);
#199=EDGE_CURVE('',#169,#168,#127,.T.);
#200=EDGE_CURVE('',#167,#169,#108,.T.);
#201=EDGE_CURVE('',#170,#170,#109,.T.);
#202=EDGE_CURVE('',#171,#171,#110,.F.);
#203=EDGE_CURVE('',#172,#166,#128,.F.);
#204=EDGE_CURVE('',#173,#172,#111,.T.);
#205=EDGE_CURVE('',#167,#173,#129,.T.);
#206=EDGE_CURVE('',#169,#174,#130,.T.);
#207=EDGE_CURVE('',#175,#174,#112,.T.);
#208=EDGE_CURVE('',#168,#175,#131,.T.);
#209=EDGE_CURVE('',#172,#173,#132,.T.);
#210=EDGE_CURVE('',#174,#175,#133,.T.);
#211=EDGE_CURVE('',#176,#176,#113,.T.);
#212=EDGE_CURVE('',#177,#177,#114,.T.);
#213=EDGE_CURVE('',#178,#178,#115,.F.);
#214=EDGE_CURVE('',#179,#180,#134,.T.);
#215=EDGE_CURVE('',#181,#179,#135,.T.);
#216=EDGE_CURVE('',#182,#181,#136,.T.);
#217=EDGE_CURVE('',#180,#182,#137,.T.);
#218=EDGE_CURVE('',#183,#183,#116,.T.);
#219=EDGE_CURVE('',#184,#184,#117,.T.);
#220=EDGE_CURVE('',#185,#185,#118,.T.);
#221=EDGE_CURVE('',#186,#186,#119,.T.);
#222=EDGE_CURVE('',#187,#188,#138,.T.);
#223=EDGE_CURVE('',#188,#189,#139,.T.);
#224=EDGE_CURVE('',#189,#190,#140,.T.);
#225=EDGE_CURVE('',#190,#187,#141,.T.);
#226=EDGE_CURVE('',#191,#191,#120,.T.);
#227=EDGE_CURVE('',#192,#192,#121,.T.);
#228=EDGE_CURVE('',#193,#193,#122,.T.);
#229=EDGE_CURVE('',#194,#194,#123,.T.);
#230=EDGE_CURVE('',#187,#179,#142,.T.);
#231=EDGE_CURVE('',#190,#181,#143,.T.);
#232=EDGE_CURVE('',#195,#195,#124,.T.);
#233=EDGE_CURVE('',#196,#196,#125,.T.);
#234=EDGE_CURVE('',#188,#180,#144,.T.);
#235=EDGE_CURVE('',#189,#182,#145,.T.);
#236=ORIENTED_EDGE('',*,*,#197,.F.);
#237=ORIENTED_EDGE('',*,*,#198,.F.);
#238=ORIENTED_EDGE('',*,*,#199,.F.);
#239=ORIENTED_EDGE('',*,*,#200,.F.);
#240=ORIENTED_EDGE('',*,*,#201,.F.);
#241=ORIENTED_EDGE('',*,*,#202,.F.);
#242=ORIENTED_EDGE('',*,*,#198,.T.);
#243=ORIENTED_EDGE('',*,*,#203,.F.);
#244=ORIENTED_EDGE('',*,*,#204,.F.);
#245=ORIENTED_EDGE('',*,*,#205,.F.);
#246=ORIENTED_EDGE('',*,*,#200,.T.);
#247=ORIENTED_EDGE('',*,*,#206,.T.);
#248=ORIENTED_EDGE('',*,*,#207,.F.);
#249=ORIENTED_EDGE('',*,*,#208,.F.);
#250=ORIENTED_EDGE('',*,*,#197,.T.);
#251=ORIENTED_EDGE('',*,*,#205,.T.);
#252=ORIENTED_EDGE('',*,*,#209,.F.);
#253=ORIENTED_EDGE('',*,*,#203,.T.);
#254=ORIENTED_EDGE('',*,*,#199,.T.);
#255=ORIENTED_EDGE('',*,*,#208,.T.);
#256=ORIENTED_EDGE('',*,*,#210,.F.);
#257=ORIENTED_EDGE('',*,*,#206,.F.);
#258=ORIENTED_EDGE('',*,*,#211,.F.);
#259=ORIENTED_EDGE('',*,*,#212,.F.);
#260=ORIENTED_EDGE('',*,*,#211,.T.);
#261=ORIENTED_EDGE('',*,*,#213,.T.);
#262=ORIENTED_EDGE('',*,*,#214,.F.);
#263=ORIENTED_EDGE('',*,*,#215,.F.);
#264=ORIENTED_EDGE('',*,*,#216,.F.);
#265=ORIENTED_EDGE('',*,*,#217,.F.);
#266=ORIENTED_EDGE('',*,*,#213,.F.);
#267=ORIENTED_EDGE('',*,*,#218,.T.);
#268=ORIENTED_EDGE('',*,*,#219,.T.);
#269=ORIENTED_EDGE('',*,*,#220,.T.);
#270=ORIENTED_EDGE('',*,*,#221,.T.);
#271=ORIENTED_EDGE('',*,*,#222,.T.);
#272=ORIENTED_EDGE('',*,*,#223,.T.);
#273=ORIENTED_EDGE('',*,*,#224,.T.);
#274=ORIENTED_EDGE('',*,*,#225,.T.);
#275=ORIENTED_EDGE('',*,*,#202,.T.);
#276=ORIENTED_EDGE('',*,*,#226,.F.);
#277=ORIENTED_EDGE('',*,*,#227,.F.);
#278=ORIENTED_EDGE('',*,*,#228,.F.);
#279=ORIENTED_EDGE('',*,*,#229,.F.);
#280=ORIENTED_EDGE('',*,*,#215,.T.);
#281=ORIENTED_EDGE('',*,*,#230,.F.);
#282=ORIENTED_EDGE('',*,*,#225,.F.);
#283=ORIENTED_EDGE('',*,*,#231,.T.);
#284=ORIENTED_EDGE('',*,*,#207,.T.);
#285=ORIENTED_EDGE('',*,*,#210,.T.);
#286=ORIENTED_EDGE('',*,*,#201,.T.);
#287=ORIENTED_EDGE('',*,*,#232,.T.);
#288=ORIENTED_EDGE('',*,*,#233,.T.);
#289=ORIENTED_EDGE('',*,*,#232,.F.);
#290=ORIENTED_EDGE('',*,*,#212,.T.);
#291=ORIENTED_EDGE('',*,*,#233,.F.);
#292=ORIENTED_EDGE('',*,*,#204,.T.);
#293=ORIENTED_EDGE('',*,*,#209,.T.);
#294=ORIENTED_EDGE('',*,*,#214,.T.);
#295=ORIENTED_EDGE('',*,*,#234,.F.);
#296=ORIENTED_EDGE('',*,*,#222,.F.);
#297=ORIENTED_EDGE('',*,*,#230,.T.);
#298=ORIENTED_EDGE('',*,*,#217,.T.);
#299=ORIENTED_EDGE('',*,*,#235,.F.);
#300=ORIENTED_EDGE('',*,*,#223,.F.);
#301=ORIENTED_EDGE('',*,*,#234,.T.);
#302=ORIENTED_EDGE('',*,*,#216,.T.);
#303=ORIENTED_EDGE('',*,*,#231,.F.);
#304=ORIENTED_EDGE('',*,*,#224,.F.);
#305=ORIENTED_EDGE('',*,*,#235,.T.);
#306=ORIENTED_EDGE('',*,*,#229,.T.);
#307=ORIENTED_EDGE('',*,*,#221,.F.);
#308=ORIENTED_EDGE('',*,*,#228,.T.);
#309=ORIENTED_EDGE('',*,*,#220,.F.);
#310=ORIENTED_EDGE('',*,*,#227,.T.);
#311=ORIENTED_EDGE('',*,*,#219,.F.);
#312=ORIENTED_EDGE('',*,*,#226,.T.);
#313=ORIENTED_EDGE('',*,*,#218,.F.);
#314=PLANE('',#371);
#315=PLANE('',#379);
#316=PLANE('',#380);
#317=PLANE('',#381);
#318=PLANE('',#386);
#319=PLANE('',#391);
#320=PLANE('',#396);
#321=PLANE('',#397);
#322=PLANE('',#403);
#323=PLANE('',#404);
#324=PLANE('',#405);
#325=PLANE('',#406);
#326=STYLED_ITEM('',(#626),#348);
#327=STYLED_ITEM('',(#626),#349);
#328=STYLED_ITEM('',(#626),#350);
#329=STYLED_ITEM('',(#626),#351);
#330=STYLED_ITEM('',(#626),#352);
#331=STYLED_ITEM('',(#626),#353);
#332=STYLED_ITEM('',(#626),#354);
#333=STYLED_ITEM('',(#626),#355);
#334=STYLED_ITEM('',(#626),#356);
#335=STYLED_ITEM('',(#626),#357);
#336=STYLED_ITEM('',(#626),#358);
#337=STYLED_ITEM('',(#626),#359);
#338=STYLED_ITEM('',(#626),#360);
#339=STYLED_ITEM('',(#626),#361);
#340=STYLED_ITEM('',(#626),#362);
#341=STYLED_ITEM('',(#626),#363);
#342=STYLED_ITEM('',(#626),#364);
#343=STYLED_ITEM('',(#626),#365);
#344=STYLED_ITEM('',(#626),#366);
#345=STYLED_ITEM('',(#626),#367);
#346=STYLED_ITEM('',(#626),#368);
#347=STYLED_ITEM('',(#626),#13);
#348=ADVANCED_FACE('',(#44,#23),#314,.F.);
#349=ADVANCED_FACE('',(#45,#24),#16,.T.);
#350=ADVANCED_FACE('',(#46),#315,.T.);
#351=ADVANCED_FACE('',(#47),#316,.T.);
#352=ADVANCED_FACE('',(#48,#25),#317,.F.);
#353=ADVANCED_FACE('',(#49,#26),#17,.T.);
#354=ADVANCED_FACE('',(#50,#27,#28,#29,#30,#31),#318,.F.);
#355=ADVANCED_FACE('',(#51,#32,#33,#34,#35,#36),#319,.T.);
#356=ADVANCED_FACE('',(#52),#320,.F.);
#357=ADVANCED_FACE('',(#53),#321,.T.);
#358=ADVANCED_FACE('',(#54,#37),#14,.F.);
#359=ADVANCED_FACE('',(#55,#38),#18,.F.);
#360=ADVANCED_FACE('',(#56,#39),#15,.F.);
#361=ADVANCED_FACE('',(#57),#322,.T.);
#362=ADVANCED_FACE('',(#58),#323,.F.);
#363=ADVANCED_FACE('',(#59),#324,.F.);
#364=ADVANCED_FACE('',(#60),#325,.F.);
#365=ADVANCED_FACE('',(#61,#40),#19,.F.);
#366=ADVANCED_FACE('',(#62,#41),#20,.F.);
#367=ADVANCED_FACE('',(#63,#42),#21,.F.);
#368=ADVANCED_FACE('',(#64,#43),#22,.F.);
#369=CLOSED_SHELL('',(#348,#349,#350,#351,#352,#353,#354,#355,#356,#357,
#358,#359,#360,#361,#362,#363,#364,#365,#366,#367,#368));
#370=AXIS2_PLACEMENT_3D('placement',#513,#411,#412);
#371=AXIS2_PLACEMENT_3D('',#514,#413,#414);
#372=AXIS2_PLACEMENT_3D('',#519,#416,#417);
#373=AXIS2_PLACEMENT_3D('',#522,#419,#420);
#374=AXIS2_PLACEMENT_3D('',#524,#421,#422);
#375=AXIS2_PLACEMENT_3D('',#525,#423,#424);
#376=AXIS2_PLACEMENT_3D('',#527,#425,#426);
#377=AXIS2_PLACEMENT_3D('',#531,#428,#429);
#378=AXIS2_PLACEMENT_3D('',#536,#432,#433);
#379=AXIS2_PLACEMENT_3D('',#538,#435,#436);
#380=AXIS2_PLACEMENT_3D('',#540,#438,#439);
#381=AXIS2_PLACEMENT_3D('',#542,#441,#442);
#382=AXIS2_PLACEMENT_3D('',#544,#443,#444);
#383=AXIS2_PLACEMENT_3D('',#546,#445,#446);
#384=AXIS2_PLACEMENT_3D('',#547,#447,#448);
#385=AXIS2_PLACEMENT_3D('',#549,#449,#450);
#386=AXIS2_PLACEMENT_3D('',#550,#451,#452);
#387=AXIS2_PLACEMENT_3D('',#560,#457,#458);
#388=AXIS2_PLACEMENT_3D('',#562,#459,#460);
#389=AXIS2_PLACEMENT_3D('',#564,#461,#462);
#390=AXIS2_PLACEMENT_3D('',#566,#463,#464);
#391=AXIS2_PLACEMENT_3D('',#567,#465,#466);
#392=AXIS2_PLACEMENT_3D('',#577,#471,#472);
#393=AXIS2_PLACEMENT_3D('',#579,#473,#474);
#394=AXIS2_PLACEMENT_3D('',#581,#475,#476);
#395=AXIS2_PLACEMENT_3D('',#583,#477,#478);
#396=AXIS2_PLACEMENT_3D('',#584,#479,#480);
#397=AXIS2_PLACEMENT_3D('',#587,#483,#484);
#398=AXIS2_PLACEMENT_3D('',#588,#485,#486);
#399=AXIS2_PLACEMENT_3D('',#590,#487,#488);
#400=AXIS2_PLACEMENT_3D('',#591,#489,#490);
#401=AXIS2_PLACEMENT_3D('',#593,#491,#492);
#402=AXIS2_PLACEMENT_3D('',#594,#493,#494);
#403=AXIS2_PLACEMENT_3D('',#595,#495,#496);
#404=AXIS2_PLACEMENT_3D('',#596,#497,#498);
#405=AXIS2_PLACEMENT_3D('',#598,#500,#501);
#406=AXIS2_PLACEMENT_3D('',#600,#503,#504);
#407=AXIS2_PLACEMENT_3D('',#601,#505,#506);
#408=AXIS2_PLACEMENT_3D('',#602,#507,#508);
#409=AXIS2_PLACEMENT_3D('',#603,#509,#510);
#410=AXIS2_PLACEMENT_3D('',#604,#511,#512);
#411=DIRECTION('axis',(0.,0.,1.));
#412=DIRECTION('refdir',(1.,0.,0.));
#413=DIRECTION('center_axis',(0.,-1.,0.));
#414=DIRECTION('ref_axis',(0.,0.,-1.));
#415=DIRECTION('',(-1.,0.,0.));
#416=DIRECTION('center_axis',(0.,-1.,0.));
#417=DIRECTION('ref_axis',(0.,0.,-1.));
#418=DIRECTION('',(1.,0.,0.));
#419=DIRECTION('center_axis',(0.,-1.,0.));
#420=DIRECTION('ref_axis',(0.,0.,-1.));
#421=DIRECTION('center_axis',(0.,1.,0.));
#422=DIRECTION('ref_axis',(0.,0.,1.));
#423=DIRECTION('center_axis',(0.,1.,0.));
#424=DIRECTION('ref_axis',(0.,0.,-1.));
#425=DIRECTION('center_axis',(0.,1.,0.));
#426=DIRECTION('ref_axis',(0.,0.,1.));
#427=DIRECTION('',(0.,-1.,0.));
#428=DIRECTION('center_axis',(0.,1.,0.));
#429=DIRECTION('ref_axis',(0.,0.,1.));
#430=DIRECTION('',(0.,-1.,0.));
#431=DIRECTION('',(0.,-1.,0.));
#432=DIRECTION('center_axis',(0.,1.,0.));
#433=DIRECTION('ref_axis',(0.,0.,1.));
#434=DIRECTION('',(0.,-1.,0.));
#435=DIRECTION('center_axis',(0.,0.,1.));
#436=DIRECTION('ref_axis',(1.,0.,0.));
#437=DIRECTION('',(-1.,0.,0.));
#438=DIRECTION('center_axis',(0.,0.,-1.));
#439=DIRECTION('ref_axis',(-1.,0.,0.));
#440=DIRECTION('',(1.,0.,0.));
#441=DIRECTION('center_axis',(0.,1.,0.));
#442=DIRECTION('ref_axis',(0.,0.,1.));
#443=DIRECTION('center_axis',(0.,1.,0.));
#444=DIRECTION('ref_axis',(0.,0.,-1.));
#445=DIRECTION('center_axis',(0.,-1.,0.));
#446=DIRECTION('ref_axis',(0.,0.,-1.));
#447=DIRECTION('center_axis',(0.,1.,0.));
#448=DIRECTION('ref_axis',(0.,0.,-1.));
#449=DIRECTION('center_axis',(0.,1.,0.));
#450=DIRECTION('ref_axis',(0.,0.,1.));
#451=DIRECTION('center_axis',(0.,1.,0.));
#452=DIRECTION('ref_axis',(0.,0.,1.));
#453=DIRECTION('',(0.,0.,1.));
#454=DIRECTION('',(-1.,0.,0.));
#455=DIRECTION('',(0.,0.,-1.));
#456=DIRECTION('',(1.,0.,0.));
#457=DIRECTION('center_axis',(0.,1.,0.));
#458=DIRECTION('ref_axis',(1.,0.,0.));
#459=DIRECTION('center_axis',(0.,1.,0.));
#460=DIRECTION('ref_axis',(1.,0.,0.));
#461=DIRECTION('center_axis',(0.,1.,0.));
#462=DIRECTION('ref_axis',(1.,0.,0.));
#463=DIRECTION('center_axis',(0.,1.,0.));
#464=DIRECTION('ref_axis',(1.,0.,0.));
#465=DIRECTION('center_axis',(0.,1.,0.));
#466=DIRECTION('ref_axis',(0.,0.,1.));
#467=DIRECTION('',(0.,0.,1.));
#468=DIRECTION('',(1.,0.,0.));
#469=DIRECTION('',(0.,0.,-1.));
#470=DIRECTION('',(-1.,0.,0.));
#471=DIRECTION('center_axis',(0.,1.,0.));
#472=DIRECTION('ref_axis',(1.,0.,0.));
#473=DIRECTION('center_axis',(0.,1.,0.));
#474=DIRECTION('ref_axis',(1.,0.,0.));
#475=DIRECTION('center_axis',(0.,1.,0.));
#476=DIRECTION('ref_axis',(1.,0.,0.));
#477=DIRECTION('center_axis',(0.,1.,0.));
#478=DIRECTION('ref_axis',(1.,0.,0.));
#479=DIRECTION('center_axis',(0.,0.,1.));
#480=DIRECTION('ref_axis',(1.,0.,0.));
#481=DIRECTION('',(0.,-1.,0.));
#482=DIRECTION('',(0.,-1.,0.));
#483=DIRECTION('center_axis',(0.,1.,0.));
#484=DIRECTION('ref_axis',(0.,0.,1.));
#485=DIRECTION('center_axis',(0.,1.,0.));
#486=DIRECTION('ref_axis',(0.,0.,1.));
#487=DIRECTION('center_axis',(0.,-1.,0.));
#488=DIRECTION('ref_axis',(0.,0.,-1.));
#489=DIRECTION('center_axis',(0.,1.,0.));
#490=DIRECTION('ref_axis',(0.,0.,-1.));
#491=DIRECTION('center_axis',(0.,-1.,0.));
#492=DIRECTION('ref_axis',(0.,0.,-1.));
#493=DIRECTION('center_axis',(0.,-1.,0.));
#494=DIRECTION('ref_axis',(0.,0.,-1.));
#495=DIRECTION('center_axis',(0.,1.,0.));
#496=DIRECTION('ref_axis',(0.,0.,1.));
#497=DIRECTION('center_axis',(1.,0.,0.));
#498=DIRECTION('ref_axis',(0.,0.,-1.));
#499=DIRECTION('',(0.,-1.,0.));
#500=DIRECTION('center_axis',(0.,0.,-1.));
#501=DIRECTION('ref_axis',(-1.,0.,0.));
#502=DIRECTION('',(0.,-1.,0.));
#503=DIRECTION('center_axis',(-1.,0.,0.));
#504=DIRECTION('ref_axis',(0.,0.,1.));
#505=DIRECTION('center_axis',(0.,1.,0.));
#506=DIRECTION('ref_axis',(0.,0.,-1.));
#507=DIRECTION('center_axis',(0.,1.,0.));
#508=DIRECTION('ref_axis',(0.,0.,-1.));
#509=DIRECTION('center_axis',(0.,1.,0.));
#510=DIRECTION('ref_axis',(0.,0.,-1.));
#511=DIRECTION('center_axis',(0.,1.,0.));
#512=DIRECTION('ref_axis',(0.,0.,-1.));
#513=CARTESIAN_POINT('',(0.,0.,0.));
#514=CARTESIAN_POINT('Origin',(5.88649190956023E-16,24.9,5.66303712696987E-16));
#515=CARTESIAN_POINT('',(5.54526825320471,24.9,9.5));
#516=CARTESIAN_POINT('',(-5.54526825320471,24.9,9.5));
#517=CARTESIAN_POINT('',(9.5,24.9,9.5));
#518=CARTESIAN_POINT('',(5.54526825320471,24.9,-9.5));
#519=CARTESIAN_POINT('Origin',(0.,24.9,0.));
#520=CARTESIAN_POINT('',(-5.54526825320471,24.9,-9.5));
#521=CARTESIAN_POINT('',(-8.75,24.9,-9.5));
#522=CARTESIAN_POINT('Origin',(0.,24.9,0.));
#523=CARTESIAN_POINT('',(-9.8584067331362E-16,24.9,-8.05000000000001));
#524=CARTESIAN_POINT('Origin',(0.,24.9,0.));
#525=CARTESIAN_POINT('Origin',(0.,-0.15,0.));
#526=CARTESIAN_POINT('',(0.,12.,11.));
#527=CARTESIAN_POINT('Origin',(0.,12.,0.));
#528=CARTESIAN_POINT('',(5.54526825320471,14.85,9.5));
#529=CARTESIAN_POINT('',(5.54526825320471,-0.15,9.5));
#530=CARTESIAN_POINT('',(-5.54526825320471,14.85,9.5));
#531=CARTESIAN_POINT('Origin',(0.,14.85,0.));
#532=CARTESIAN_POINT('',(-5.54526825320471,-0.15,9.5));
#533=CARTESIAN_POINT('',(-5.54526825320471,14.85,-9.5));
#534=CARTESIAN_POINT('',(-5.54526825320471,-0.150000000000001,-9.5));
#535=CARTESIAN_POINT('',(5.54526825320471,14.85,-9.5));
#536=CARTESIAN_POINT('Origin',(0.,14.85,0.));
#537=CARTESIAN_POINT('',(5.54526825320471,-0.15,-9.5));
#538=CARTESIAN_POINT('Origin',(19.,34.85,9.5));
#539=CARTESIAN_POINT('',(19.,14.85,9.5));
#540=CARTESIAN_POINT('Origin',(-17.5,34.85,-9.5));
#541=CARTESIAN_POINT('',(-17.5,14.85,-9.5));
#542=CARTESIAN_POINT('Origin',(-1.04425478644796E-15,-0.1,-4.35381578284375E-16));
#543=CARTESIAN_POINT('',(17.,-0.1,2.0818995585505E-15));
#544=CARTESIAN_POINT('Origin',(0.,-0.1,0.));
#545=CARTESIAN_POINT('',(-9.73594205322146E-16,-0.1,7.95));
#546=CARTESIAN_POINT('Origin',(0.,-0.1,0.));
#547=CARTESIAN_POINT('Origin',(0.,-0.15,0.));
#548=CARTESIAN_POINT('',(0.,0.,17.));
#549=CARTESIAN_POINT('Origin',(0.,0.,0.));
#550=CARTESIAN_POINT('Origin',(0.,0.,0.));
#551=CARTESIAN_POINT('',(-30.,0.,-22.5));
#552=CARTESIAN_POINT('',(-30.,0.,22.5));
#553=CARTESIAN_POINT('',(-30.,0.,-22.5));
#554=CARTESIAN_POINT('',(30.,0.,-22.5));
#555=CARTESIAN_POINT('',(30.,0.,-22.5));
#556=CARTESIAN_POINT('',(30.,0.,22.5));
#557=CARTESIAN_POINT('',(30.,0.,22.5));
#558=CARTESIAN_POINT('',(-30.,0.,22.5));
#559=CARTESIAN_POINT('',(-20.7,0.,16.5));
#560=CARTESIAN_POINT('Origin',(-24.,0.,16.5));
#561=CARTESIAN_POINT('',(-20.7,0.,-16.5));
#562=CARTESIAN_POINT('Origin',(-24.,0.,-16.5));
#563=CARTESIAN_POINT('',(27.3,0.,16.5));
#564=CARTESIAN_POINT('Origin',(24.,0.,16.5));
#565=CARTESIAN_POINT('',(27.3,0.,-16.5));
#566=CARTESIAN_POINT('Origin',(24.,0.,-16.5));
#567=CARTESIAN_POINT('Origin',(0.,12.,0.));
#568=CARTESIAN_POINT('',(-30.,12.,-22.5));
#569=CARTESIAN_POINT('',(-30.,12.,22.5));
#570=CARTESIAN_POINT('',(-30.,12.,-22.5));
#571=CARTESIAN_POINT('',(30.,12.,22.5));
#572=CARTESIAN_POINT('',(-30.,12.,22.5));
#573=CARTESIAN_POINT('',(30.,12.,-22.5));
#574=CARTESIAN_POINT('',(30.,12.,22.5));
#575=CARTESIAN_POINT('',(30.,12.,-22.5));
#576=CARTESIAN_POINT('',(-20.7,12.,16.5));
#577=CARTESIAN_POINT('Origin',(-24.,12.,16.5));
#578=CARTESIAN_POINT('',(-20.7,12.,-16.5));
#579=CARTESIAN_POINT('Origin',(-24.,12.,-16.5));
#580=CARTESIAN_POINT('',(27.3,12.,16.5));
#581=CARTESIAN_POINT('Origin',(24.,12.,16.5));
#582=CARTESIAN_POINT('',(27.3,12.,-16.5));
#583=CARTESIAN_POINT('Origin',(24.,12.,-16.5));
#584=CARTESIAN_POINT('Origin',(30.,12.,-22.5));
#585=CARTESIAN_POINT('',(-30.,12.,-22.5));
#586=CARTESIAN_POINT('',(30.,12.,-22.5));
#587=CARTESIAN_POINT('Origin',(0.,14.85,0.));
#588=CARTESIAN_POINT('Origin',(0.,24.85,0.));
#589=CARTESIAN_POINT('',(0.,24.038,-7.188));
#590=CARTESIAN_POINT('Origin',(0.,24.038,0.));
#591=CARTESIAN_POINT('Origin',(0.,-0.15,0.));
#592=CARTESIAN_POINT('',(0.,0.662000000000003,-7.188));
#593=CARTESIAN_POINT('Origin',(0.,0.662000000000003,0.));
#594=CARTESIAN_POINT('Origin',(0.,0.662000000000003,0.));
#595=CARTESIAN_POINT('Origin',(0.,14.85,0.));
#596=CARTESIAN_POINT('Origin',(-30.,12.,-22.5));
#597=CARTESIAN_POINT('',(-30.,12.,22.5));
#598=CARTESIAN_POINT('Origin',(-30.,12.,22.5));
#599=CARTESIAN_POINT('',(30.,12.,22.5));
#600=CARTESIAN_POINT('Origin',(30.,12.,22.5));
#601=CARTESIAN_POINT('Origin',(24.,12.,-16.5));
#602=CARTESIAN_POINT('Origin',(24.,12.,16.5));
#603=CARTESIAN_POINT('Origin',(-24.,12.,-16.5));
#604=CARTESIAN_POINT('Origin',(-24.,12.,16.5));
#605=UNCERTAINTY_MEASURE_WITH_UNIT(LENGTH_MEASURE(0.01),#609,
'DISTANCE_ACCURACY_VALUE',
'Maximum model space distance between geometric entities at asserted c
onnectivities');
#606=UNCERTAINTY_MEASURE_WITH_UNIT(LENGTH_MEASURE(1.E-6),#609,
'DISTANCE_ACCURACY_VALUE',
'Maximum model space distance between geometric entities at asserted c
onnectivities');
#607=(
GEOMETRIC_REPRESENTATION_CONTEXT(3)
GLOBAL_UNCERTAINTY_ASSIGNED_CONTEXT((#605))
GLOBAL_UNIT_ASSIGNED_CONTEXT((#609,#612,#610))
REPRESENTATION_CONTEXT('','3D')
);
#608=(
GEOMETRIC_REPRESENTATION_CONTEXT(3)
GLOBAL_UNCERTAINTY_ASSIGNED_CONTEXT((#606))
GLOBAL_UNIT_ASSIGNED_CONTEXT((#609,#612,#610))
REPRESENTATION_CONTEXT('','3D')
);
#609=(
LENGTH_UNIT()
NAMED_UNIT(*)
SI_UNIT(.MILLI.,.METRE.)
);
#610=(
NAMED_UNIT(*)
SI_UNIT($,.STERADIAN.)
SOLID_ANGLE_UNIT()
);
#611=DIMENSIONAL_EXPONENTS(0.,0.,0.,0.,0.,0.,0.);
#612=(
CONVERSION_BASED_UNIT('degree',#614)
NAMED_UNIT(#611)
PLANE_ANGLE_UNIT()
);
#613=(
NAMED_UNIT(*)
PLANE_ANGLE_UNIT()
SI_UNIT($,.RADIAN.)
);
#614=PLANE_ANGLE_MEASURE_WITH_UNIT(PLANE_ANGLE_MEASURE(0.01745329252),#613);
#615=SHAPE_DEFINITION_REPRESENTATION(#616,#617);
#616=PRODUCT_DEFINITION_SHAPE('',$,#619);
#617=SHAPE_REPRESENTATION('',(#370),#607);
#618=PRODUCT_DEFINITION_CONTEXT('part definition',#623,'design');
#619=PRODUCT_DEFINITION('CAD_5231','CAD_5231',#620,#618);
#620=PRODUCT_DEFINITION_FORMATION('',$,#625);
#621=PRODUCT_RELATED_PRODUCT_CATEGORY('CAD_5231','CAD_5231',(#625));
#622=APPLICATION_PROTOCOL_DEFINITION('international standard',
'automotive_design',2009,#623);
#623=APPLICATION_CONTEXT(
'Core Data for Automotive Mechanical Design Process');
#624=PRODUCT_CONTEXT('part definition',#623,'mechanical');
#625=PRODUCT('CAD_5231','CAD_5231',$,(#624));
#626=PRESENTATION_STYLE_ASSIGNMENT((#627));
#627=SURFACE_STYLE_USAGE(.BOTH.,#628);
#628=SURFACE_SIDE_STYLE('',(#629));
#629=SURFACE_STYLE_FILL_AREA(#630);
#630=FILL_AREA_STYLE('',(#631));
#631=FILL_AREA_STYLE_COLOUR('',#632);
#632=COLOUR_RGB('',0.87843137254902,0.874509803921569,0.858823529411765);
ENDSEC;
END-ISO-10303-21;
